Song name
# A B C D E F G H I J K L M N O P Q R S T U V W X Y Z

Korn - Let The Guilt Go tab

                             LET THE GUILT GO
                                   KORN
                                 KORN III

    INTRO          let the guil go..
               x7              x4                              x4         x4
1c ---------------- ------------- ------------------------------- -----------|
2c ---------------- ------------- ------------------------------- -----------|
3c----------------- ------------- ------------------------------- -----------|
4c ---------------- ------------- ------------------------------- -----------|
5c -5-5-5-5-6-6-6-4 ------------- 6-6-6-6-5-5-5-4-4-4-4-4-3-3-3-3 6-6--6-7-5-|
6c -3-3-3-3-4-4-4-2 2-2-2-2-2-2-2 4-4-4-4-3-3-3-2-2-2-2-2-1-1-1-1 4-4--4-5-3-|

             x4            x4                              x4
--------------- ------------- --------------------------------|
--------------- ------------- --------------------------------|
--------------- ------------- --------------------------------|
--------------- ------------- --------------------------------|
5-5-5-5-6-6-6-4 ------------- 6-6-6-6-5-5-5-4-4-4-4-4-3-3-3-3-|
3-3-3-3-4-4-4-2 2-2-2-2-2-2-2 4-4-4-4-3-3-3-2-2-2-2-2-1-1-1-1-|

                            x2                              x4
------------------------------ --------------------------------|
------------------------------ --------------------------------|
------------------------------ --------------------------------|
-----3-------2-------5-------5 ----------1-1-1----------0-0-0--|
-----3-------2-------5-------5 3333333333-3-3-2222222222-2-2-2-|
11--11--00--00--33--33--33--33 --------------------------------|
Tap to rate this tab
# A B C D E F G H I J K L M N O P Q R S T U V W X Y Z