Song name
# A B C D E F G H I J K L M N O P Q R S T U V W X Y Z

Korn - Hollow Life tab

Help us improve GuitareTab! Take a short survey!
Gtr I (A D G C F A D) - 'Head'
Gtr II (A D G C F A D) - 'Head'
Gtr III (A D G C F A D) - 'Munky'


 Intro
  Moderately Q=90
  N.C.
 4/4
  Gtr I
   W           W           W           +W
|-15--------|-14--------|-12--------|-(12)----|
|-----------|-----------|-----------|---------|
|-----------|-----------|-----------|---------|
|-----------|-----------|-----------|---------|
|-----------|-----------|-----------|---------|
|-----------|-----------|-----------|---------|
|-----------|-----------|-----------|---------|


  $
  D5    A5         F5    G5         D5    A5         F5     G5
  Gtr I
   W                W                W                +W
|-15-------------|-14-------------|-12-------------|-(12)------------|
|----------------|----------------|----------------|-----------------|
|----------------|----------------|----------------|-----------------|
|----------------|----------------|----------------|-----------------|
|----------------|----------------|----------------|-----------------|
|----------------|----------------|----------------|-----------------|
|----------------|----------------|----------------|-----------------|
|
| Gtr III
|  Q.   E +H        Q.   E +H        Q.   E +H         Q.   E +H
|----------------|----------------|----------------|-----------------|
|----------------|----------------|----------------|-----------------|
|----------------|----------------|----------------|-----------------|
|----------------|----------------|----------------|-----------------|
|-------7-(7)----|--3----5-(5)----|-------7-(7)----|---3----5-(5)----|
|--5----5-(5)----|--1----3-(3)----|--5----5-(5)----|---1----3-(3)----|
|--3-------------|----------------|--3-------------|-----------------|


   Verse
    D5    A5         F5    G5         D5    A5         F5     G5
     W                W                W                +W
||--15-------------|-14-------------|-12-------------|-(12)-------------||
||-----------------|----------------|----------------|------------------||
||o----------------|----------------|----------------|-----------------o||
||-----------------|----------------|----------------|------------------||
||o----------------|----------------|----------------|-----------------o||
||-----------------|----------------|----------------|------------------||
||-----------------|----------------|----------------|------------------||
|
|    Q.   E +H        Q.   E +H        Q.   E +H         Q.   E +H
||-----------------|----------------|----------------|------------------||
||-----------------|----------------|----------------|------------------||
||o----------------|----------------|----------------|-----------------o||
||-----------------|----------------|----------------|------------------||
||o-------7-(7)----|--3----5-(5)----|-------7-(7)----|---3----5-(5)----o||
||---5----5-(5)----|--1----3-(3)----|--5----5-(5)----|---1----3-(3)-----||
||---3-------------|----------------|--3-------------|------------------||


   Chorus
                                                 D.S.
    G5   F5   C5   G/B        G5   F5   D5   Bb5   F5
    Gtr II
    W              W          W               H    H
||--7------------|-7--------|-8------------|-10----8------||
||--8------------|-8--------|-9------------|-11----9------||
||o-7------------|-7--------|-8------------|-10----8-----o||
||---------------|----------|--------------|--------------||
||o--------------|----------|--------------|-------------o||
||---------------|----------|--------------|--------------||
||---------------|----------|--------------|--------------||
|
|   Q.   Q.   Q    W          Q.   Q.   Q     H    H
||---------------|----------|--------------|--------------||
||---------------|----------|--------------|--------------||
||o--------------|----------|--------------|-------------o||
||---------------|----------|--------------|--3-----------||
||o-5----3-------|----------|-5----3-------|--1----3-----o||
||--3----1----3--|-3--------|-3----1----5--|-------1------||
||------------1--|-0--------|-----------3--|--------------||


   Bridge
    Dm/A                  A
    Gtr II
    W                     W
||--5-------------------|-5-------------------|
||--6-------------------|-5-------------------|
||o-7-------------------|-6-------------------|
||--7-------------------|-7-------------------|
||o---------------------|---------------------|
||----------------------|---------------------|
||----------------------|---------------------|
|
|   S S S Q  S S S Q.     S S S Q  S S S Q.
||----------------------|---------------------|
||----------------------|---------------------|
||o---------------------|---------------------|
||----------------------|---------------------|
||o---------------------|---------------------|
||----------------------|---------------------|
||--1-2-3-4--1-2-3-4----|-0-1-2-3--0-1-2-3----|


  Am                    Gm
  W                     W
|-5-------------------|-3---------------------||
|-5-------------------|-3---------------------||
|-5-------------------|-3--------------------o||
|-7-------------------|-5---------------------||
|---------------------|----------------------o||
|---------------------|-----------------------||
|---------------------|-----------------------||
|
| S S S Q  S S S Q.     S S S Q  S S S Q.
|---------------------|-----------------------||
|---------------------|-----------------------||
|---------------------|----------------------o||
|---------------------|-----------------------||
|---------------------|----------------------o||
|---------------------|-----------------------||
|-1-2-3-4--1-2-3-4----|-0-1-2-3--0-1-2-3------||


    Dm/A       A          Am         Gm
    W          W          W          W     4x
||--5--------|-5--------|-5--------|-3-----||
||--6--------|-5--------|-5--------|-3-----||
||o-7--------|-6--------|-5--------|-3----o||
||--7--------|-7--------|-7--------|-5-----||
||o----------|----------|----------|------o||
||-----------|----------|----------|-------||
||-----------|----------|----------|-------||


   Chorus
    G5   F5   C5   G/B        G5   F5   D5   Bb5   F5
    W              W          W               H    H
||--7------------|-7--------|-8------------|-10----8-----||
||--8------------|-8--------|-9------------|-11----9-----||
||o-7------------|-7--------|-8------------|-10----8----o||
||---------------|----------|--------------|-------------||
||o--------------|----------|--------------|------------o||
||---------------|----------|--------------|-------------||
||---------------|----------|--------------|-------------||
|
|   Gtr III
|   Q.   Q.   Q    W          Q.   Q.   Q     H    H
||---------------|----------|--------------|-------------||
||---------------|----------|--------------|-------------||
||o--------------|----------|--------------|------------o||
||---------------|----------|--------------|--3----------||
||o-5----3-------|----------|-5----3-------|--1----3----o||
||--3----1----3--|-3--------|-3----1----5--|-------1-----||
||------------1--|-0--------|-----------3--|-------------||


    Dm/A                  A
    W                     W
||--5-------------------|-5-------------------|
||--6-------------------|-5-------------------|
||o-7-------------------|-6-------------------|
||--7-------------------|-7-------------------|
||o---------------------|---------------------|
||----------------------|---------------------|
||----------------------|---------------------|
|
|   S S S Q  S S S Q.     S S S Q  S S S Q.
||----------------------|---------------------|
||----------------------|---------------------|
||o---------------------|---------------------|
||----------------------|---------------------|
||o---------------------|---------------------|
||----------------------|---------------------|
||--1-2-3-4--1-2-3-4----|-0-1-2-3--0-1-2-3----|


  Am                    Gm
  W                     W                     4x
|-5-------------------|-3---------------------||
|-5-------------------|-3---------------------||
|-5-------------------|-3--------------------o||
|-7-------------------|-5---------------------||
|---------------------|----------------------o||
|---------------------|-----------------------||
|---------------------|-----------------------||
|
| S S S Q  S S S Q.     S S S Q  S S S Q.     4x
|---------------------|-----------------------||
|---------------------|-----------------------||
|---------------------|----------------------o||
|---------------------|-----------------------||
|---------------------|----------------------o||
|---------------------|-----------------------||
|-1-2-3-4--1-2-3-4----|-0-1-2-3--0-1-2-3------||


 Outro
  Dm/A       A          Am         Gm
  W          W          W          W
|-5--------|-5--------|-5--------|-3----*|
|-6--------|-5--------|-5--------|-3----*|
|-7--------|-6--------|-5--------|-3----*|
|-7--------|-7--------|-7--------|-5----*|
|----------|----------|----------|------*|
|----------|----------|----------|------*|
|----------|----------|----------|------*|




--------------------------------------------------------------------------------


Duration Legend
---------------
W - whole; H - half; Q - quarter; E - 8th; S - 16th; T - 32nd; X - 64th; a - acciaccatura
+ - note tied to previous; . - note dotted; .. - note double dotted
Uncapitalized letters represent notes that are staccato (1/2 duration)
Irregular groupings are notated above the duration line
Duration letters will always appear directly above the note/fret number it represents the
duration for.  Duration letters with no fret number below them represent rests.  Multi-
bar rests are notated in the form Wxn, where n is the number of bars to rest for.  Low
melody durations appear below the staff

Tablature Legend
----------------
 h   - hammer-on
 p   - pull-off
 b   - bend
 pb  - pre-bend
 r   - bend release (if no number after the r, then release immediately)
 /\  - slide into or out of (from/to "nowhere")
 s   - legato slide
 S   - shift slide
 - natural harmonic
[n]  - artificial harmonic
n(n) - tapped harmonic
 ~   - vibrato
 tr  - trill
 T   - tap
 TP  - trem. picking
 PM  - palm muting
\n/  - tremolo bar dip; n = amount to dip
 \n  - tremolo bar down
 n/  - tremolo bar up
/n\  - tremolo bar inverted dip
 =   - hold bend; also acts as connecting device for hammers/pulls
 <> - volume swell (louder/softer)
 x   - on rhythm slash represents muted slash
 o   - on rhythm slash represents single note slash

Misc Legend
-----------
 |  - bar
||  - double bar
||o - repeat start
o|| - repeat end
*|  - double bar (ending)
 :  - bar (freetime)
 $  - Segno
 &  - Coda
Tempo markers -  = BPM(8/16=s8/s16), where s8 = swing 8ths, s16 = swing 16ths


Related for Hollow Life tab