Song name
# A B C D E F G H I J K L M N O P Q R S T U V W X Y Z

Korn - Get Up tab

this song i made by ear...maybe have a mistake...


>tuning:  D-A-D-G-B-E

________________________
    X      /      X
 number--------->number
       slide to
________________________

>Intro 00:13:

E|--------------------
B|--------------------___________
G|--------------------
D|--4--4--4--3/0------DUBSTEP PART
A|--4--4--4--3/0------___________
D|--4--4--4--3/0------




>Verse (singed part...)  (optional)

E|----------------------------------|
B|----------------------------------|
G|----------------------------------|
D|----------------------------------|
A|----------------------------------|
D|---3---3-3-1-1-1-1/4-4-4-6-4-3-3--|



>Bridge (dubstep)-you can do it with "wah wah"   (wah wah is optional)


E|-------------------------------|
B|-------------------------------|
G|-------------------------------|
D|--3-3-3-3----3-3-3-3---3-3-3---|
A|--3-3-3-3----3-3-3-3---3-3-3---|
D|--3-3-3-3----3-3-3-3---3-3-3---|



>Chorus:

      C#             F              D# (the same chord) D# 
E|-----------------------------------------------------------|
B|-----------------------------------------------------------|
G|---6--6--6--6--------------------8--8--8--8----------------|
D|---6--6--6--6-----3--3--3--3-----8--8--8--8-----1--1--1--1-|
A|---4--4--4--4-----3--3--3--3-----6--6--6--6-----1--1--1--1-|
D|------------------3--3--3--3--------------------1--1--1--1-|


>Bridge after chorus...repeat the intro...

>Verse

>Bridge (dubstep)

>Chorus

>Bridge after chorus


                  NOTE: HERE WE COME DE DUBSTEP PART...
                   I DON'T UNDERSTAND VERY MUCH
                      THIS PART...SORRY :'( 


and now...the chorus have a little silence...start from  "F"  
                                                      (3-3-3-x-x-x) 

>Bridge after Chorus...repeat the intro


              _______________END________________


Tab by me:  Lionel Alfonso- ARgentina...  Greatings from argentina :DD
Tap to rate this tab
# A B C D E F G H I J K L M N O P Q R S T U V W X Y Z