Song name
# A B C D E F G H I J K L M N O P Q R S T U V W X Y Z

Korn - Never Never tab

--------------------------------------------------------------|
--------------------------------------------------------------|
----5-----------7-----------5-----------7---------------------|
----5-----5-----7-----7-----5-----5-----7-----7---------------|
----3-----5-----5-----7-----3-----5-----5-----7---------------|
----------3-----------5-----------3-----------5---------------|



--------------------------------------------------------------|
--------------------------------------------------------------|
----5-----------7-----------------5-----------7---------------|
----5-----------7-----7---7/9-----5-----------7-----7---7/9---|
----3--3-----5--5-----7---7/9-----3--3-----5--5-----7---7/9---|
--------3-------------5---5/7---------3----3--------5---5/7---|
Tap to rate this tab
 
# A B C D E F G H I J K L M N O P Q R S T U V W X Y Z