Song name
# A B C D E F G H I J K L M N O P Q R S T U V W X Y Z

Korn - Prey For Me tab

-------------------------------------------------------------------------------
                             PREY FOR ME - Korn
-------------------------------------------------------------------------------
Tabbed by: FRr3AKOnALEaSh
E-mail: smokin_05@hotmail.com

Tuning: A Standard (7 String) A D G C F a d

h = Hammer-down
~ = Note is held
\ = Slide-down

Riff 1 (Intro/Bridge)
d|-----------------------------------------|
a|-----------------------------------------|
F|-----------------------------------------|
C|-----------------------------------------|
G|-------------------------------4---------|
D|-------------------------------3---------|
A|-012--012--012--012--012--012----2--012--| <- 1's and 2's

Riff 2 (Intro/Bridge)
d|-----------------------------------|
a|-----------------------------------|
F|-----------------------------------|
C|-----------------------------------|
G|-------------------------------4~--|
D|-------------------------------3~--|
A|-012--012--012--012--012--012------| <- 1's and 2's

Riff 3 (Verse)
d|----------------------------------| riffs 3-4 are a bit difficult to 
a|----------------------------------| figure out, but sounds about right
F|----------------------------------|
C|----------------------------------|
G|--2h44-2h44-2h44-0-0-0-5-5-5-5-5--|
D|----------------------------------|
A|----------------------------------|

Riff 4 (Verse)
d|----------------------------------|
a|----------------------------------|
F|----------------------------------|
C|----------------------------------|
G|--2h44-2h44-2h44-0-0-0-0-0-0-0-0--|
D|----------------------------------|
A|----------------------------------|

Riff 5 (Chorus)
d|---------------------|
a|---------------------|
F|---------------------|
C|------6~------6~-----|
G|------7~------7~-----|
D|--4~--5~--2~--5~-5~--| x2  first chorus
A|--2~------0~-----3~--| x4 second chorus

Riff 6 (Bridge)
d|------------------------|
a|------------------------|
F|--14\13-14\13-14\13\11--|
C|------------------------|
G|--12\11-12\11-12\11\-9--|
D|------------------------|
A|------------------------|

Riff 7 (Bridge)
d|--------------------------------------------------|
a|--------------------------------------------------|
F|--14\13-14\13-14\13-14\13-14\13-14\13-14\13-14\13-|
C|--------------------------------------------------|
G|--12\11-12\11-12\11-12\11-12\11-12\11-12\11-12\11-|
D|--------------------------------------------------|
A|--------------------------------------------------| \
                                                       | BOTH PARTS
Riff 8 (Bridge)                                        | PLAY TOGETHER
d|--------------------------------------------------| /
a|--------------------------------------------------|
F|--------------------------------------------------|
C|--------------------------------------------------|
G|--------------------------------------------------|
D|--------------------------------------------------|
A|---------------------0~------------------------0--|

Riff 9 (Bridge/Outro) 
d|-----------------------------------------| After riffs 1-2 play in the bridge,
a|-----------------------------------------| It's the same but this time, the 
F|-----------------------------------------| notes are held down
C|-----------------------------------------|
G|-------------------------------4---------|
D|-------------------------------3---------|
A|-012~-012~-012~-012~-012~-012~---2~-012~-| < 1's and 2's

--------------------------------------------------------------------------

If you have any questions about this tab, 
leave a comment. If you think this tab is 
accurate don't forget to leave a good rating =)
Tap to rate this tab
# A B C D E F G H I J K L M N O P Q R S T U V W X Y Z