Song name
# A B C D E F G H I J K L M N O P Q R S T U V W X Y Z

Korn - Victimized tab

-------------------------------------------------------------------------------
                             VICTIMIZED - Korn
-------------------------------------------------------------------------------
Tabbed by: FRr3AkOnALEaSh
E-mail: smokin_05@hotmail.com

Tuning: A Standard (7 String) A D G C F a d

~      - Hold Note/let ring out until next note
/ or \ - /Slide-up or \Slide-down
{x_}   - times played

Riff 1 (Intro)
d|----------------------|
a|----------------------|
F|--11~---------12~-14~-|
C|------12~-14~---------|
G|----------------------|
D|----------------------|
A|----------------------|

Riff 2 (Intro/Verse)
d|-------|---------------|---------------|---------------|
a|-------|---------------|---------------|---------------|
F|-------|---------------|---------------|---------------|
C|-------|---------------|---------------|---------------|
G|-------|---------------|---------------|---------------|
D|-------|---------------|------1--------|---------------|
A|--1-0--|--1-0-1-4-1-0--|--1-4---0-1-0--|--0-1-4-0-1-0--|

Riff 3 (Chorus/Bridge) Guitar 1
d|----------|----------|----------|
a|----------|----------|----------|
F|----------|----------|----------|
C|----------|----------|----------|
G|--9~------|--7~------|----------|
D|--7~------|--5~------|--8~------|
A|-----{x16}|------{x8}|--6~--{x8}|                        \
                                                            | PLAYED
Riff 4 (Chorus/Bridge) Guitar 2                             | TOGETHER
d|-----------|----------|----------|----------|----------| /
a|-----------|----------|----------|----------|----------|
F|--11~------|----------|----------|--12~-----|--14~-----|
C|-----------|--12~-----|--14~-----|----------|----------|
G|-----------|----------|----------|----------|----------|
D|-----------|----------|----------|----------|----------|
A|------{x12}|------{x4}|------{x8}|------{x4}|------{x4}|

Riff 5 (Chorus/Bridge) Guitar 1
d|----------|----------|----------|--------|
a|----------|----------|----------|--------|
F|----------|----------|----------|--------|
C|----------|----------|----------|--------|
G|--9~------|--7~------|----------|--------|
D|--7~------|--5~------|--8~------|----8~--|
A|-----{x16}|------{x8}|--6~--{x4}|--6.----|               \
                                                            | PLAYED
Riff 6 (Chorus/Bridge) Guitar 2                             | TOGETHER
d|-----------|----------|----------|----------|----------| /
a|-----------|----------|----------|----------|----------|
F|--11~------|----------|----------|----------|----------|
C|-----------|--12~-----|--14~-----|--12~-----|--11~-----|
G|-----------|----------|----------|----------|----------|
D|-----------|----------|----------|----------|----------|
A|------{x12}|------{x4}|------{x8}|------{x4}|------{x4}|

Riff 7 (Breakdown/Bridge)
d|----------|----------|---------|
a|----------|----------|---------|
F|----------|----------|---------|
C|----------|----------|---------|
G|----------|----------|---------|
D|--2~------|--0~------|---------|
A|-----{x16}|------{x8}|--1~-{x8}|

Riff 8 (Outro)
d|--------|----------------|----------------|----------------|-------|
a|--------|----------------|----------------|----------------|-------|
F|--------|----------------|----------------|----------------|-------|
C|--------|----------------|----------------|----------------|-------|
G|--------|----------------|----------------|----------------|-------|
D|--------|----------------|------1---------|----------------|--5/7\-|
A|--1-0~--|--1-0-1-4-1-0~--|--1-4---0-1-0~--|--0-1-4-0-1-0~--|-------|

Riff 9 (Outro)
d|--------|----------------|----------------|----------------|
a|--------|----------------|----------------|----------------|
F|--------|----------------|----------------|----------------|
C|--------|----------------|----------------|----------------|
G|--------|----------------|----------------|----------------|
D|--------|----------------|------1---------|----------------|
A|--1-0~--|--1-0-1-4-1-0~--|--1-4---0-1-0~--|--0-1-4-0-1-0---|

~~~~~~~~~~~~~~~~~~~~~~~~~~~~~~~~~~~~~~~~~~~~~~~~~~~~~~~~~~~~~~~~~~~~~

If you believe this tab is accurate, don't forget to leave a good rating
(It helps me out a lot) Leave any questions or corrections in the
comments and I'll get back to you. Check out my page for everything Korn
and more from The Paradigm Shift coming soon! rock on =)
Tap to rate this tab
 
# A B C D E F G H I J K L M N O P Q R S T U V W X Y Z