Song name
# A B C D E F G H I J K L M N O P Q R S T U V W X Y Z

Korn - Spike In My Veins tab

Artist - Korn
Song - Spike in My Veins
Album - Paradigm Shift
Tabbed By - Berserker2020

*each part will not be tabbed out for exact timing but it is easy to hear and figure
out. Notes will be correct notes being played or should be for the most part.

Intro: x6
-----------------------------------------------------------------------------|
-----------------------------------------------------------------------------|
-----------------------------------------------------------------------------|
--6----7----9----15----------------------------------------------------------|
--x----x----x----x-----------------------------------------------------------|
--4----5----7----13----------------------------------------------------------|
-----------------------------------------------------------------------------|

Verse: x2
-----------------------------------------------------------------------------|
-----------------------------------------------------------------------------|
-----------------------------------------------------------------------------|
-----------------------------------------------------------------------------|
------7---9--------7---9--------7---9----12---14---10------------------------|
--2------------2------------2------------------------------------------------|
-----------------------------------------------------------------------------|

Pre Chorus: x2
-----------------------------------------------------------------------------|
-----------------------------------------------------------------------------|
-----------------------------------------------------------------------------|
-----------------------------------------------------------------------------|
-----------------------------------------------------------------------------|
--9----7----13-14-13--10-----------------------------------------------------|
-----------------------------------------------------------------------------|

Chorus: x4
-----------------------------------------------------------------------------|
-----------------------------------------------------------------------------|
-----------------------------------------------------------------------------|
---------------8-9-8---5-----------------------------------------------------|
--9-/-3----7---8-9-8---5-----------------------------------------------------|
--9-/-3----7---6-7-6---3-----------------------------------------------------|
--7-/-1----5-----------------------------------------------------------------|

Bridge:
--------------------|--------------------------------------------------------|
--------------------|--------------------------------------------------------|
--------------------|--------------------------------------------------------|
--4---4/5/4---------|--------------------------------------------------------|
--4---4/5/4---------|----2----0----6--7--6----3------------------------------|
--2---2/3/2---------|--------------------------------------------------------|
--------------------|--------------------------------------------------------|


Intro
Verse
Pre Chorus
Chorus
Intro
Verse
Pre Chorus
Chorus
Bridge
Chorus

If you find anything different or something else to add please let me know. Enjoy
Tap to rate this tab
# A B C D E F G H I J K L M N O P Q R S T U V W X Y Z