Song name
# A B C D E F G H I J K L M N O P Q R S T U V W X Y Z

Korn - Punishment Time tab

-------------------------------------------------------------------------------
                             PUNISHMENT TIME - Korn
-------------------------------------------------------------------------------
Tabbed by: FRr3AkOnALEaSh
E-mail: smokin_05@hotmail.com

Tuning: A Standard (7-String) A D G C F a d

~ - Hold until next note
. - Palm-Mute
h - Hammer-On

~ CHECK THE BOTTOM OF THE PAGE FOR STRUCTURE ~

Riff 1 (Intro)
d|---------------|----------------|---------------|-----------------|
a|---------------|----------------|---------------|-----------------|
F|---------------|----------------|---------------|-----------------|
C|---------------|----------------|---------------|-----------------|
G|---------------|----------------|---------------|-----------------|
D|--5-7-8-7-5----|--5-7-8-7-5-----|--5-7-8-7-5----|-----------------|
A|------------0--|------------00--|------------0--|--2-5-2-1-4-1-0--|

Riff 2 (Intro)
d|--------------------|
a|--------------------|
F|--------------------|
C|--------------------|
G|--------------------|
D|--------------------|
A|--2-5-2-1-4-1-0-{x2}|

Riff 3 (Intro/Pre-Chorus/Outro)
d|---------------|----------------|---------------|-----------------|
a|---------------|----------------|---------------|-----------------|
F|---------------|----------------|---------------|-----------------|
C|---------------|----------------|---------------|-----------------|
G|--7-8-9-8-7----|--7-8-9-8-7-----|--7-8-9-8-7----|-----------------|
D|--6-7-8-7-6----|--6-7-8-7-6-----|--6-7-8-7-6----|-----------------|
A|------------0--|------------00--|------------0--|--2-5-2-1-4-1-0--|

Riff 4 (Intro)
d|--18~--|
a|--17~--|
F|--20~--|
C|-------|
G|-------|
D|-------|
A|-------|

Riff 5 (Verse)
d|---------------|---------------|---------------|-------------------|
a|---------------|---------------|---------------|-------------------|
F|---------------|---------------|---------------|-------------------|
C|---------------|---------------|---------------|-------------------|
G|---------------|---------------|---------------|-------------------|
D|--5-7-8-7-5----|----5-7-8-7----|--5-7-8-7-5----|-------------------|
A|------------0--|--0---------0--|------------0--|--0-2-5-2-1-4-1-0--|
    . . . . . .     . . . . . .     . . . . . .     . . . . . . . .   .Palm-Mute

Riff 6 (Chorus) 
d|----------|----------|-------------------|----------|
a|----------|----------|-------------------|----------|
F|--2~------|----------|--0-0-0-0-0-0-0-0--|--2~------|
C|--3~------|--2~------|--2-2-2-2-2-2-2-2--|--3~------|
G|--3~------|--3~------|--2-2-2-2-2-2-2-2--|--3~------|
D|--1~------|--3~------|--0-0-0-0-0-0-0-0--|--1~------|
A|-----{x16}|--1~-{x16}|-------------------|-----{x16}|

Riff 7 (Bridge)
D|----------------|----------------|----------------|-------------|
A|----5--5--5--5--|----3--3--3--3--|----3--3--3--3--|----5--5--5--|
F|----------------|----------------|----------------|-------------|
C|--3--3--3--3----|----------------|----------------|--5--5--5----|
G|----------------|--3--3--3--3----|--2--2--2--2----|-------------|
D|----------------|----------------|----------------|-------------|
A|----------------|----------------|----------------|-------------|

Riff 8 (Bridge/Pre-Chorus)
d|------------------|
a|-------------17~--|
F|-------------20~--|
C|------------------|
G|------------------|
D|--h6-h6-h6-0------|
A|------------------|

~~~~~~~~~~~~~~~~~~~~~~~~~~~~~~~~~~~~~~~~~~~~~~~~~~~~~~~~~~

STRUCTURE:

~ INTRO ~

0:00 - 0:19 = Riff 1
0:19 - 0:22 = Riff 2
0:22 - 0:43 = Riff 3
0:33 - 0:33 = Riff 4

~ VERSE 1 ~

0:44 - 1:04 = Riff 5
1:05 - 1:10 = Riff 3

~ CHORUS 1 ~

1:10 - 1:32 = Riff 6

~ VERSE 2 ~

1:34 - 1:53 = Riff 5
1:53 - 1:58 = Riff 3

~ CHORUS 2 ~

1:58 - 2:20 = Riff 6

~ BRIDGE ~

2:20 - 3:07 = Riff 7
3:07 - 3:18 = Riff 3
3:13 - 3:14 = Riff 4
2:19 - 3:20 = Riff 8

~ CHORUS 3 ~

3:21 - 3:44 = Riff 6

~ OUTRO ~

3:44 - END  = Riff 3 & 4
                                                         
~~~~~~~~~~~~~~~~~~~~~~~~~~~~~~~~~~~~~~~~~~~~~~~~~~~~~~~~~~

If you believe this tab is accurate, don't forget to leave a good rating
(It helps me out a lot) Leave any questions or corrections in the
comments and I'll get back to you. Check out my page for everything Korn
and more from The Paradigm Shift coming soon! rock on =)
Tap to rate this tab
# A B C D E F G H I J K L M N O P Q R S T U V W X Y Z