Song name
# A B C D E F G H I J K L M N O P Q R S T U V W X Y Z

Korn - My Gift To You tab

Gtr I (A D G C F A D) - 'Munky (Right)'
Gtr II (A D G C F A D) - 'Head (Left)'
Gtr III (A D G C F A D) - 'Munky'


 Intro
  Moderately Slow Rock Q=96                        1.,2.,3.
               E5                                          F5
 4/4
  Gtrs I, II
  W            W          +W           +W           +H     Q  Q   4x
|----------||-----------|------------|------------|---------------||
|----------||-----------|------------|------------|---------------||
|----------||o----------|------------|------------|--------------o||
|----------||-----------|------------|------------|---------------||
|----------||o-7--------|-(7)--------|-(7)--------|-(7)----8--8--o||
|----------||--7--------|-(7)--------|-(7)--------|-(7)----8--8---||
|----------||--5--------|-(5)--------|-(5)--------|-(5)----6--6---||


  4.
  (E5)         C#5
                               7/8
   W           E E E Q  E E E   Q  E E E E E
|------------|----------------|--------------|
|------------|----------------|--------------|
|------------|----------------|--------------|
|------------|----------------|--------------|
|-(7)--------|-4-4-4----4-4-4-|----4-4-4-4---|
|-(7)--------|-4-4-4----4-4-4-|----4-4-4-4---|
|-(5)--------|-2-2-2----2-2-2-|----2-2-2-2---|


    C#5                                                           C5
   4/4
    E E E Q  E E E   Q.   E E E E E   E E E Q  E E E   Q.   E E E Q
||-----------------|----------------|----------------|----------------||
||-----------------|----------------|----------------|----------------||
||o----------------|----------------|----------------|---------------o||
||-----------------|----------------|----------------|----------------||
||o-4-4-4----4-4-4-|------4-4-4-4---|-4-4-4----4-4-4-|------4-4-4-3--o||
||--4-4-4----4-4-4-|------4-4-4-4---|-4-4-4----4-4-4-|------4-4-4-3---||
||--2-2-2----2-2-2-|------2-2-2-2---|-2-2-2----2-2-2-|------2-2-2-1---||


   Verse
    C#5                                                           C5
    E E E Q  E E E   Q.   E E E E E   E E E Q  E E E   Q.   E E E Q   4x
||-----------------|----------------|----------------|----------------||
||-----------------|----------------|----------------|----------------||
||o----------------|----------------|----------------|---------------o||
||-----------------|----------------|----------------|----------------||
||o-4-4-4----4-4-4-|------4-4-4-4---|-4-4-4----4-4-4-|------4-4-4-3--o||
||--4-4-4----4-4-4-|------4-4-4-4---|-4-4-4----4-4-4-|------4-4-4-3---||
||--2-2-2----2-2-2-|------2-2-2-2---|-2-2-2----2-2-2-|------2-2-2-1---||


   Chorus
    E5              F5     D5  F5    E5              F5     D5  F5
    Gtr I
    W               H      Q   Q     W               H      Q   Q    4x
||----------------|----------------|---------------|-----------------||
||----------------|----------------|---------------|-----------------||
||o---------------|----------------|---------------|----------------o||
||----------------|----------------|---------------|-----------------||
||o-7-------------|-8------5---8---|-7-------------|-8------5---8---o||
||--7-------------|-8------5---8---|-7-------------|-8------5---8----||
||--5-------------|-6------3---6---|-5-------------|-6------3---6----||
|
|   Gtr II
|   E E Q  E E Q    E E Q  E E E E   E E Q  E E Q    E E Q  E E E E  4x
||----------------|----------------|---------------|-----------------||
||------0------0--|-----0--------0-|-----0------0--|-----0--------0--||
||o---4------4----|---4------4-----|---4------4----|---4------4-----o||
||--2------2------|-3------0---3---|-2------2------|-3------0---3----||
||o---------------|----------------|---------------|----------------o||
||----------------|----------------|---------------|-----------------||
||----------------|----------------|---------------|-----------------||


 Verse
  C#5                                                         C5B5
  Gtrs I, II
  E E E Q  E E E   Q.   E E E E E   E E E Q  E E E   Q.   E E E Q
|----------------|----------------|----------------|----------------|
|----------------|----------------|----------------|----------------|
|----------------|----------------|----------------|----------------|
|----------------|----------------|----------------|----------------|
|-4-4-4----4-4-4-|------4-4-4-4---|-4-4-4----4-4-4-|------4-4-3-2---|
|-4-4-4----4-4-4-|------4-4-4-4---|-4-4-4----4-4-4-|------4-4-3-2---|
|-2-2-2----2-2-2-|------2-2-2-2---|-2-2-2----2-2-2-|------2-2-1-0---|


    C#5                                                           C5
    E E E Q  E E E   Q.   E E E E E   E E E Q  E E E   Q.   E E E Q   3x
||-----------------|----------------|----------------|----------------||
||-----------------|----------------|----------------|----------------||
||o----------------|----------------|----------------|---------------o||
||-----------------|----------------|----------------|----------------||
||o-4-4-4----4-4-4-|------4-4-4-4---|-4-4-4----4-4-4-|------4-4-4-3--o||
||--4-4-4----4-4-4-|------4-4-4-4---|-4-4-4----4-4-4-|------4-4-4-3---||
||--2-2-2----2-2-2-|------2-2-2-2---|-2-2-2----2-2-2-|------2-2-2-1---||


   Chorus
    E5              F5     D5  F5    E5              F5     D5  F5
    W               H      Q   Q     W               H      Q   Q    4x
||----------------|----------------|---------------|-----------------||
||----------------|----------------|---------------|-----------------||
||o---------------|----------------|---------------|----------------o||
||----------------|----------------|---------------|-----------------||
||o-7-------------|-8------5---8---|-7-------------|-8------5---8---o||
||--7-------------|-8------5---8---|-7-------------|-8------5---8----||
||--5-------------|-6------3---6---|-5-------------|-6------3---6----||
|
|   Gtr II
|   E E Q  E E Q    E E Q  E E E E   E E Q  E E Q    E E Q  E E E E  4x
||----------------|----------------|---------------|-----------------||
||------0------0--|-----0--------0-|-----0------0--|-----0--------0--||
||o---4------4----|---4------4-----|---4------4----|---4------4-----o||
||--2------2------|-3------0---3---|-2------2------|-3------0---3----||
||o---------------|----------------|---------------|----------------o||
||----------------|----------------|---------------|-----------------||
||----------------|----------------|---------------|-----------------||


 Bridge
  Faster Q=107
  E5
  Gtr III
  E Q  E H       E  Q.   E E E E    E  Q  E H       E  Q.   E E E E
|-------------|------------------|---------------|-------------------|
|-------------|------------------|---------------|-------------------|
|-------------|------------------|---------------|-------------------|
|---4----4----|-----4------4---4-|-----4----4----|-----4------4---4--|
|-------------|------------------|---------------|-------------------|
|-2----2------|--3-------0---3---|--2-----2------|--3-------0---3----|
|-------------|------------------|---------------|-------------------|
|
| Gtr II
| >
| W             +W                 +W              +W
|-------------|------------------|---------------|-------------------|
|-------------|------------------|---------------|-------------------|
|-------------|------------------|---------------|-------------------|
|-------------|------------------|---------------|-------------------|
|-7-----------|-(7)--------------|-(7)-----------|-(7)---------------|
|-7-----------|-(7)--------------|-(7)-----------|-(7)---------------|
|-5-----------|-(5)--------------|-(5)-----------|-(5)---------------|


   E  Q  E H       E  Q.   E E E E    E  Q  E H       E  Q.   E E E E
|---------------|------------------|---------------|-------------------|
|---------------|------------------|---------------|-------------------|
|---------------|------------------|---------------|-------------------|
|-----4----4----|-----4------4---4-|-----4----4----|-----4------4---4--|
|---------------|------------------|---------------|-------------------|
|--2-----2------|--3-------0---3---|--2-----2------|--3-------0---3----|
|---------------|------------------|---------------|-------------------|
|
| +W              +W                 +W              +W
|---------------|------------------|---------------|-------------------|
|---------------|------------------|---------------|-------------------|
|---------------|------------------|---------------|-------------------|
|---------------|------------------|---------------|-------------------|
|-(7)-----------|-(7)--------------|-(7)-----------|-(7)---------------|
|-(7)-----------|-(7)--------------|-(7)-----------|-(7)---------------|
|-(5)-----------|-(5)--------------|-(5)-----------|-(5)---------------|


   E  Q  E H        E   Q.    E  E  E  E
|---------------|------------------------|
|---------------|------------------------|
|---------------|------------------------|
|-----4----4----|-------4--------4-----4-|
|---------------|------------------------|
|--2-----2------|---3---------0-----3----|
|---------------|------------------------|
|
|  W               +H         Q     Q
|-<7>-----------|-(<7>)------------------|
|---------------|------------------<7>---|
|---------------|------------<5>---------|
|---------------|------------------------|
|---------------|------------------------|
|---------------|------------------------|
|---------------|------------------------|


    E   Q  E H        E   Q.   E E E E
|-----------------|---------------------|
|-----------------|---------------------|
|-----------------|---------------------|
|-------4----4----|-------4------4---4--|
|-----------------|---------------------|
|---2------2------|---3--------0---3----|
|-----------------|---------------------|
|
|  +W                +W
|-----------------|---------------------|
|-(<7>)-----------|-(<7>)---------------|
|-----------------|---------------------|
|-----------------|---------------------|
|-----------------|---------------------|
|-----------------|---------------------|
|-----------------|---------------------|


   E  Q  E H        E   Q.    E  E E E    E  Q  E H        E   Q.   E E E E
|---------------|----------------------|---------------|---------------------|
|---------------|----------------------|---------------|---------------------|
|---------------|----------------------|---------------|---------------------|
|-----4----4----|-------4--------4---4-|-----4----4----|-------4------4---4--|
|---------------|----------------------|---------------|---------------------|
|--2-----2------|---3---------0----3---|--2-----2------|---3--------0---3----|
|---------------|----------------------|---------------|---------------------|
|
|  W               +H         H           W               +W
|-<7>-----------|-(<7>)----------------|---------------|---------------------|
|---------------|----------------------|-<7>-----------|-(<7>)---------------|
|---------------|------------<5>-------|---------------|---------------------|
|---------------|----------------------|---------------|---------------------|
|---------------|----------------------|---------------|---------------------|
|---------------|----------------------|---------------|---------------------|
|---------------|----------------------|---------------|---------------------|


     E  Q  E H        E   Q.     E  E E E
||----------------|-----------------------|
||----------------|-----------------------|
||o---------------|-----------------------|
||------4----4----|-------4---------4---4-|
||o---------------|-----------------------|
||---2-----2------|---3----------0----3---|
||----------------|-----------------------|
|
|    W               +H          H
||----------------|------------<12>-------|
||--<7>-----------|-(<7>)-----------------|
||o---------------|-----------------------|
||----------------|-----------------------|
||o---------------|-----------------------|
||----------------|-----------------------|
||----------------|-----------------------|


   E  Q  E H        E   Q.     E  E E E  4x
|---------------|------------------------||
|---------------|------------------------||
|---------------|-----------------------o||
|-----4----4----|-------4---------4---4--||
|---------------|-----------------------o||
|--2-----2------|---3----------0----3----||
|---------------|------------------------||
|
|  W               +H          H         4x
|---------------|------------<12>--------||
|-<7>-----------|-(<7>)------------------||
|---------------|-----------------------o||
|---------------|------------------------||
|---------------|-----------------------o||
|---------------|------------------------||
|---------------|------------------------||


   Breakdown
    E5          F5    D5    F5  E5          F5    D5     F5
    Gtr I
     W           H     Q  E E    W           H      Q  E E
||------------|---------------|-----------|-----------------||
||------------|---------------|-----------|-----------------||
||o-----------|---------------|-----------|----------------o||
||------------|---------------|-----------|-----------------||
||o--7--------|--8-----5--5-8-|--7--------|--8------5--5-8-o||
||---7--------|--8-----5--5-8-|--7--------|--8------5--5-8--||
||---5--------|--6-----3--3-6-|--5--------|--6------3--3-6--||
|
|   Gtr II
|    ~~~~~~~~~~~~~~~~~~~~~~~~~~~~~~~~~~~~~~~~~~~~~~~~~
|    W           H     H         W           H      H
||------------|---------------|-----------|-----------------||
||------------|---------------|-----------|-----------------||
||o-13--------|-14----11------|-13--------|-14----/18------o||
||------------|---------------|-----------|-----------------||
||o-11--------|-12-----9------|-11--------|-12----/16------o||
||------------|---------------|-----------|-----------------||
||------------|---------------|-----------|-----------------||


    E                 F      D     F   E                 F      D     F
     E Q.   E E E E   E Q.   E E E E    E Q.   E E E E   E Q.   E E E E
||------------------|----------------|-----------------|-----------------||
||------------------|----------------|-----------------|-----------------||
||o-----------------|----------------|-----------------|----------------o||
||---8------8-8---8-|-9------6-6-6-9-|--8------8-8---8-|-9------6-6-6-9--||
||o--7------7-7---7-|-8------5-5-5-8-|--7------7-7---7-|-8------5-5-5-8-o||
||---6------6-6---6-|-7------4-4-4-7-|--6------6-6---6-|-7------4-4-4-7--||
||---5------5-5---5-|-6------3-3-3-6-|--5------5-5---5-|-6------3-3-3-6--||
|
|    ~~                                 ~~
|    W                W                 W                W
||------------------|----------------|-----------------|-----------------||
||------------------|----------------|-----------------|-----------------||
||o-10--------------|----------------|-10--------------|----------------o||
||------------------|----------------|-----------------|-----------------||
||o--8--------------|----------------|--8--------------|----------------o||
||------------------|----------------|-----------------|-----------------||
||------------------|----------------|-----------------|-----------------||


  E
   W           +W            +W            +W
|-----------|-------------|-------------|---------|
|-----------|-------------|-------------|---------|
|-----------|-------------|-------------|---------|
|--8--------|--(8)--------|--(8)--------|--(8)----|
|--7--------|--(7)--------|--(7)--------|--(7)----|
|--6--------|--(6)--------|--(6)--------|--(6)----|
|--5--------|--(5)--------|--(5)--------|--(5)----|
|
|  W           +W            +W            +W
|-----------|-------------|-------------|---------|
|-----------|-------------|-------------|---------|
|-10--------|-(10)--------|-(10)--------|-(10)----|
|-----------|-------------|-------------|---------|
|--8--------|--(8)--------|--(8)--------|--(8)----|
|-----------|-------------|-------------|---------|
|-----------|-------------|-------------|---------|


  Moderately Slow Rock Q=96
  B5                          C5
  Gtrs I, II
  E E E Q  E E E   Q  E E E E Q
|----------------|---------------|
|----------------|---------------|
|----------------|---------------|
|----------------|---------------|
|-2-2-2----2-2-2-|------2-2-2-3--|
|-2-2-2----2-2-2-|------2-2-2-3--|
|-0-0-0----0-0-0-|------0-0-0-1--|


  C#5                                                         C5B5
  E E E Q  E E E   Q.   E E E E E   E E E Q  E E E   Q.   E E E Q
|----------------|----------------|----------------|----------------|
|----------------|----------------|----------------|----------------|
|----------------|----------------|----------------|----------------|
|----------------|----------------|----------------|----------------|
|-4-4-4----4-4-4-|------4-4-4-4---|-4-4-4----4-4-4-|------4-4-3-2---|
|-4-4-4----4-4-4-|------4-4-4-4---|-4-4-4----4-4-4-|------4-4-3-2---|
|-2-2-2----2-2-2-|------2-2-2-2---|-2-2-2----2-2-2-|------2-2-1-0---|


   Chorus
    E5              F5     D5  F5    E5              F5     D5  F5
    Gtr I
    W               H      Q   Q     W               H      Q   Q    6x
||----------------|----------------|---------------|-----------------||
||----------------|----------------|---------------|-----------------||
||o---------------|----------------|---------------|----------------o||
||----------------|----------------|---------------|-----------------||
||o-7-------------|-8------5---8---|-7-------------|-8------5---8---o||
||--7-------------|-8------5---8---|-7-------------|-8------5---8----||
||--5-------------|-6------3---6---|-5-------------|-6------3---6----||
|
|   Gtr II
|   E E Q  E E Q    E E Q  E E E E   E E Q  E E Q    E E Q  E E E E  6x
||----------------|----------------|---------------|-----------------||
||------0------0--|-----0--------0-|-----0------0--|-----0--------0--||
||o---4------4----|---4------4-----|---4------4----|---4------4-----o||
||--2------2------|-3------0---3---|-2------2------|-3------0---3----||
||o---------------|----------------|---------------|----------------o||
||----------------|----------------|---------------|-----------------||
||----------------|----------------|---------------|-----------------||


  E5
  W          +W           +W           +W           +W
|----------|------------|------------|------------|--------|
|----------|------------|------------|------------|--------|
|----------|------------|------------|------------|--------|
|----------|------------|------------|------------|--------|
|-7--------|-(7)--------|-(7)--------|-(7)--------|-(7)----|
|-7--------|-(7)--------|-(7)--------|-(7)--------|-(7)----|
|-5--------|-(5)--------|-(5)--------|-(5)--------|-(5)----|
|
|             >
| W          +W           +W           +W           +W
|----------|------------|------------|------------|--------|
|-0--------|-(0)--------|-(0)--------|-(0)--------|-(0)----|
|-4--------|-(4)--------|-(4)--------|-(4)--------|-(4)----|
|-3--------|-(3)--------|-(3)--------|-(3)--------|-(3)----|
|----------|------------|------------|------------|--------|
|----------|------------|------------|------------|--------|
|----------|------------|------------|------------|--------|


  +W           +W           +W           +W           +W
|------------|------------|------------|------------|--------*|
|------------|------------|------------|------------|--------*|
|------------|------------|------------|------------|--------*|
|------------|------------|------------|------------|--------*|
|-(7)--------|-(7)--------|-(7)--------|-(7)--------|-(7)----*|
|-(7)--------|-(7)--------|-(7)--------|-(7)--------|-(7)----*|
|-(5)--------|-(5)--------|-(5)--------|-(5)--------|-(5)----*|
|
| +W           +W           +W           +W           +W
|------------|------------|------------|------------|--------*|
|-(0)--------|-(0)--------|-(0)--------|-(0)--------|-(0)----*|
|-(4)--------|-(4)--------|-(4)--------|-(4)--------|-(4)----*|
|-(3)--------|-(3)--------|-(3)--------|-(3)--------|-(3)----*|
|------------|------------|------------|------------|--------*|
|------------|------------|------------|------------|--------*|
|------------|------------|------------|------------|--------*|




--------------------------------------------------------------------------------


Duration Legend
---------------
W - whole; H - half; Q - quarter; E - 8th; S - 16th; T - 32nd; X - 64th; a - acciaccatura
+ - note tied to previous; . - note dotted; .. - note double dotted
Uncapitalized letters represent notes that are staccato (1/2 duration)
Irregular groupings are notated above the duration line
Duration letters will always appear directly above the note/fret number it represents the
duration for.  Duration letters with no fret number below them represent rests.  Multi-
bar rests are notated in the form Wxn, where n is the number of bars to rest for.  Low
melody durations appear below the staff

Tablature Legend
----------------
 h   - hammer-on
 p   - pull-off
 b   - bend
 pb  - pre-bend
 r   - bend release (if no number after the r, then release immediately)
 /\  - slide into or out of (from/to "nowhere")
 s   - legato slide
 S   - shift slide
 - natural harmonic
[n]  - artificial harmonic
n(n) - tapped harmonic
 ~   - vibrato
 tr  - trill
 T   - tap
 TP  - trem. picking
 PM  - palm muting
\n/  - tremolo bar dip; n = amount to dip
 \n  - tremolo bar down
 n/  - tremolo bar up
/n\  - tremolo bar inverted dip
 =   - hold bend; also acts as connecting device for hammers/pulls
 <> - volume swell (louder/softer)
 x   - on rhythm slash represents muted slash
 o   - on rhythm slash represents single note slash

Misc Legend
-----------
 |  - bar
||  - double bar
||o - repeat start
o|| - repeat end
*|  - double bar (ending)
 :  - bar (freetime)
 $  - Segno
 &  - Coda
Tempo markers -  = BPM(8/16=s8/s16), where s8 = swing 8ths, s16 = swing 16ths


Tap to rate this tab
# A B C D E F G H I J K L M N O P Q R S T U V W X Y Z