Guitaretab - guitar tabs
Song name
# A B C D E F G H I J K L M N O P Q R S T U V W X Y Z

Korn - Ball Tounge tab

Artist:Korn  Song:Ball tounge  Album:Korn

\ = slide toward head stock
^ = bend
(" ") = (you don't hit the note but it's the ending note to a pull off, hammer on or slide)
pm = palm muting

INTRO
D]---------------------------------------------------|
A]---------------------------------------------------|
F.]--------------------------------------------------|
C]---------------------------------------------------|      X4
G]--8\(7)------7\(6)------8\(7)---------10---9-------|
D]--8\(7)------5\(4)------8\(7)----------8----7------|
A.]-6\(5)--0-----------0--6\(5)----0-0---------------|


INTRO CONTINUED
D]----------------------*----------------------------------|
A]----------------------*----------------------------------|
F.]---------------------*----------------------------------|
C]----------------------*----------------------------------|
G]+---11------------7---*----11---------8pm---7pm-----7----|
D]----9-------------5---*-----9---------8pm---7pm-----5----|
A.]---------0-0-0-------*---------0pm---6pm---5pm----------|


INTRO2
D]------------------------------------------------------|
A]------------------------------------------------------|
F.]-----------------------------------------------------|
C]------------------------------------------------------|   X8
G]---8\(7)------7\(6)-----8\(7)-------7\(6)------8\(7)--|
D]---8\(7)------5\(4)-----8\(7)-------5\(4)------8\(7)--|
A.]--6\(5)--0----------0--6\(5)----0----------0--6\(5)-|

(ON 4TH AND 8TH)
D]--------------------------------------------------|
A]--------------------------------------------------|
F.]-------------------------------------------------|
C]--------------------------------------------------|
G]--8\(7)------7\(6)-----8\(7)-------11---------7---|
D]--8\(7)------5\(4)-----8\(7)--------9---------5---|
A.]-6\(5)--0----------0--6\(5)----0-------0-0-------|
[ Tab from: http://www.guitaretab.com/k/korn/40303.html ]
BRIDGE TO VERSE                         |------VERSE------------|
D]-----12------------14---16---------|||------------------------|
A.]----16------------18--------------|||-----------21^----------|
F.]----------------------------------|||------------------------|    X8
C]-----------------------------------|||------------------------|
G]-----------------------------------|||------------------------|
D]-----------------------------------|||------------------------|
A.]----------------------------------|||------------------------|

CHORUS
(im geting tired so im gonna put only the chords here)
D]------------------------------------------------|                 _
A.]-----------------------------------------------|
F.]-----------------------------------------------|
C]--13---11----7----------------------------------|
G]------------------------------------------------|
D]--11----9----5----------------------------------|
A.]-----------------------------------------------|           Measure1
                                     |
D]-------------------------------------|
A.]------------------------------------|
F.]------------------------------------|
C]--------11---13----------------------|
G]-------------------------------------|
D]--------9----11----------------------|


(VERSE)X8
(CHORUS)
BRIDGE TO INTRO2
GUITAR 1 / GUITAR 2
D]-----10-------/----------------------------|
A.]----14------/-------11--------------------|
F.]--------------/-----14--------------------|
C]---------------/---------------------------|
G]---------------/---------------------------|
D]---------------/---------------------------|
A.]--------------/---------------------------|

(INTRO2)X8
(on the 8th)

D]-------------------------------------------|
A]-------------------------------------------|
F.]------------------------------------------|
C]-------------------------------------------|
G]------------11----------8pm---7pm----7-----|
D]------------9-----------8pm---7pm----5-----|
A.]-----------------0pm---6pm---5pm----------|

MIDDLE
(Bend the 14th to the pitch of the 16th)
GUITAR 1 / GUITAR 2
D]-----14^----/------------------------- ---------|
A.]------------/--- 15p(12)----15p(12)------------|
F.]------------/------------------------ ---------|
C]-------------/------------------------ ---------|
G]-------------/------------------------ ---------|
D]-------------/------------------------ ---------|
A.]------------/------------------------ ---------|

(INTRO2)x8

HERE COMES TE INTERLUDE, I THINK ITS WITH VOLUME SWELLING BUT IM NOT SURE SO ILL SUBMIT THIS PART

(CHORUS)

END PART
D]--------------------------------------|
A.]-------------------------------------|
F.]-------------------------------------|
C]--------------------------------------|
G]---------------------------3----------|
D]--2--2----2-2---2------2---3----------|
A.]-0--0----0-0---0----x-0---1----------|
Related for Ball Tounge tab