Song name
# A B C D E F G H I J K L M N O P Q R S T U V W X Y Z

Korn - Lets Get The Party Started tab

Help us improve GuitareTab! Take a short survey!
   Intro-               
---------------------------------------------|
---5-6-5---5-6-5----5----5---5-6-5----5-6-5--|
-2-------2-------2-----2----1-------1-------1|
---------------------------------------------|  2X
---------------------------------------------|
---------------------------------------------|
---------------------------------------------|

-------------------14------------------------|
--15-----14-----------------15--------14-----|
---------------------------------------------|
---------------------------------------------|
---------------------------------------------|
---------------------------------------------|
---------------------------------------------|

---------14------14------------14------------|
-----15---------------15-------------15------|
---------------------------------------------|
---------------------------------------------|
---------------------------------------------|
---------------------------------------------|
---------------------------------------------|
Related for Lets Get The Party Started tab