Song name
# A B C D E F G H I J K L M N O P Q R S T U V W X Y Z

Korn - Everything Ive Known tab

KoRn - Everything I've Known - Take A Look In The Mirror

Tabbed by Elvisz (elvisz@kornkids.com)
Tuning : 7 String Tuned Low to High (A D G C F a d)

Vocal: Jonathan Houseman Davis 'Hiv'
Guitar1: Brian Phillip Welch 'Head'
Guitar2: James Randal Shaffer 'Munky'
Bass: Reginald Arvizu 'Fieldy'
Drums: David Silveria

Intro:(Guitar2)
d|-------------------------------------|
a|-------------------------------------|
F|-------------------------------------|
C|--------------------------------/7---|
G|-----7-8~------7-5~-------7-8-5----5-|
D|-------------------------------------|
A|-3~~~-----3~~~~------0-3~------------|

Pre-verse:(Guitar1 & Guitar2)
d|--------------------|
a|--------------------|
F|--------------------|
C|--------------------|
G|-5~~\(5)~XX-5-5-6-3-|
D|-5~~\(5)~XX-5-5-6-3-|
A|-3~~\(3)~XX-3-3-4-1-|

Verse:
d|-------------------------------------|
a|-------------------------------------|
F|-------------------------------------|
C|--------------------------------/7---|
G|-----7-8~------7-5~-------7-8-5----5-|
D|-------------------------------------|
A|-3~~~-----3~~~~------0-3~------------|

d|-----------------------------------|--------------------------------|
a|-----15~~15~~--------13~~13-11~10~-|-----15~~15~~--------13~~11~10~-|
F|-12~~--------11~~10~~--------------|-12~~--------11~~10~~-----------|
C|-----------------------------------|--------------------------------|(Guitar1)
G|-----------------------------------|--------------------------------|
D|-----------------------------------|--------------------------------|
A|-----------------------------------|--------------------------------|

Pre-chorus:
d|----------------|
a|----------------|
F|----------------|
C|----------------|	(Guitar2)
G|-5~~8~~10~~12~~-|
D|-5~~8~~10~~12~~-|
A|-3~~6~~ 8~~10~~-|

d|---------------------------------------------------|
a|----15------------15------------15----------15--16-|
F|-14-xx-141514--14-xx-141514--14-xx-141514-14xx14xx-|
C|-xx-12-xxxxxx--xx-12-xxxxxx--xx-12-xxxxxx-xx12xx13-|	(Guitar1)
G|-12----121312--12----121312--12----121312-12--12---|
D|---------------------------------------------------|
A|---------------------------------------------------|

Chorus:(Guitar1 & Guitar2)
d|--------------------|
a|--------------------|
F|--------------------|
C|--------------------|
G|-5~~\(5)~XX-5-5-6-3-|
D|-5~~\(5)~XX-5-5-6-3-|
A|-3~~\(3)~XX-3-3-4-1-|

Verse:
d|-------------------------------------|
a|-------------------------------------|
F|-------------------------------------|
C|--------------------------------/7---|	(Guitar2)
G|-----7-8~------7-5~-------7-8-5----5-|
D|-------------------------------------|
A|-3~~~-----3~~~~------0-3~------------|

d|-----------------------------------|--------------------------------|
a|-----15~~15~~--------13~~13-11~10~-|-----15~~15~~--------13~~11~10~-|
F|-12~~--------11~~10~~--------------|-12~~--------11~~10~~-----------|
C|-----------------------------------|--------------------------------|(Guitar1)
G|-----------------------------------|--------------------------------|
D|-----------------------------------|--------------------------------|
A|-----------------------------------|--------------------------------|

Pre-chorus:
d|----------------|
a|----------------|
F|----------------|
C|----------------|	(Guitar2)
G|-5~~8~~10~~12~~-|
D|-5~~8~~10~~12~~-|
A|-3~~6~~ 8~~10~~-|

d|---------------------------------------------------|
a|----15------------15------------15----------15--16-|
F|-14-xx-141514--14-xx-141514--14-xx-141514-14xx14xx-|
C|-xx-12-xxxxxx--xx-12-xxxxxx--xx-12-xxxxxx-xx12xx13-|	(Guitar1)
G|-12----121312--12----121312--12----121312-12--12---|
D|---------------------------------------------------|
A|---------------------------------------------------|

Chorus:(Guitar1 & Guitar2)
d|--------------------|
a|--------------------|
F|--------------------|
C|--------------------|
G|-5~~\(5)~XX-5-5-6-3-|
D|-5~~\(5)~XX-5-5-6-3-|
A|-3~~\(3)~XX-3-3-4-1-|

Bridge1:(Guitar2)
d|-------------------------------------|
a|-------------------------------------|
F|-------------------------------------|
C|--------------------------------/7---|
G|-----7-8~------7-5~-------7-8-5----5-|
D|-------------------------------------|
A|-3~~~-----3~~~~------0-3~------------|

Bridge2:(Guitar1 & Guitar2 together,and at the end Guitar2 plays the next riff)
d|--------------------------|-----|
a|--------------------------|-----|
F|--------------------------|-----|
C|--------------------------|-----|
G|--------------------------|-----|
D|-5-6-5--5-6-5--5-6-3--6-5-|-4-3-|
A|-3-4-3--3-4-3--3-4-1--4-3-|-2-1-|

d|--------------------------|-----|
a|--------------------------|-----|
F|--------------------------|-----|
C|--------------------------|-----|	(Guitar2)
G|-5-6-5--5-6-5--5-6-3--6-5-|-4-3-|
D|-x-x-x--x-x-x--x-x-x--x-x-|-x-x-|
A|-3-4-3--3-4-3--3-4-1--4-3-|-2-1-|

Pre-chorus:
d|----------------|
a|----------------|
F|----------------|
C|----------------|	(Guitar2)
G|-5~~8~~10~~12~~-|
D|-5~~8~~10~~12~~-|
A|-3~~6~~ 8~~10~~-|

d|---------------------------------------------------|
a|----15------------15------------15----------15--16-|
F|-14-xx-141514--14-xx-141514--14-xx-141514-14xx14xx-|
C|-xx-12-xxxxxx--xx-12-xxxxxx--xx-12-xxxxxx-xx12xx13-|	(Guitar1)
G|-12----121312--12----121312--12----121312-12--12---|
D|---------------------------------------------------|
A|---------------------------------------------------|

Chorus:(Guitar1 & Guitar2)
d|--------------------|
a|--------------------|
F|--------------------|
C|--------------------|
G|-5~~\(5)~XX-5-5-6-3-|
D|-5~~\(5)~XX-5-5-6-3-|
A|-3~~\(3)~XX-3-3-4-1-|
Tap to rate this tab
 
# A B C D E F G H I J K L M N O P Q R S T U V W X Y Z