Song name
# A B C D E F G H I J K L M N O P Q R S T U V W X Y Z

Korn - Im Hiding tab

Band- Korn
Song- Im Hiding
Album- Untouchables

Tuning:  ADGCFAD

Intro:

D|--------------------------------------------------|
A|--------------------------------------------------|
F|--------------------------------------------------|
C|--------------------------------------------------|
G|--3/5--6-7-8--5--3/5--6-7-6--5--------------------|
D|--3/5--6-7-8--5--3/5--6-7-6--5--------------------|
A|--1/3--4-5-6--3--1/3--4-5-4--3--------------------|
Grace slide

Verse:
w/flanger

D|--10--10/11\10------------------------------------|
A|--x---x--x--x-------------------------------------|
F|--7---7/-8\-7-------------------------------------|
C|--------------------------------------------------|
G|--------------------------------------------------|
D|--------------------------------------------------|
A|--------------------------------------------------|

Chorus:

D|--------------------------------------------------|
A|--------------------------------------------------|
F|--------------------------------------------------|
C|--------------------------------------------------|
G|--5--7-6--5--7-6-5--------------------------------|
D|--5--7-6--5--7-6-5--------------------------------|
A|--3--5-4--3--5-4-3--------------------------------|

Outro:
w/ring modulator

D|--10-10-10-10--13-13-13-13--10-10-10-10-----------|
A|--x--x--x--x---x--x--x--x---x--x--x--x------------|
F|--7--7--7--7---10-10-10-10--8--8--8--8------------|
C|--------------------------------------------------|
G|--------------------------------------------------|
D|--------------------------------------------------|
A|--------------------------------------------------|
Tap to rate this tab
# A B C D E F G H I J K L M N O P Q R S T U V W X Y Z