Song name
# A B C D E F G H I J K L M N O P Q R S T U V W X Y Z

Korn - Bottled Up Inside tab

Help us improve GuitareTab! Take a short survey!
Band - Korn
Song - Bottled Up Inside
Album - Untouchables (2002)
Tuning - A,D,G,C,F,A,D

Intro - Guitars 1 & 2
|---------------------|
|---------------------|
|---------------------|
|---------------------|
|---------------------|   Repeats
|-4---4-4---4-4---4-4-|
|-2-0-2-2-3-2-2-0-2-2-|

Verse - Play Intro

Pre-Chorus - Let all notes ring, Guitar 2
|---------------------------------|
|-0---------0-----0---------0-----|
|---0---------0-----0---------0---|
|-----5---5-----5-----4---4-----4-|
|-------3---------------2---------|   Repeats
|---------------------------------|
|---------------------------------|

Guitar 1
|---------------------------------|
|---------------------------------|
|---------------------------------|
|---------------------------------|
|-4-5--------------4-5------------|
|-4-5--------------4-5------------|
|-2-3--------------2-3------------|

Guitar 2 Pre-Chorus Ending
|-----------------------------------|
|-----------------------------------|
|-----------------------------------|
|-6-7-6-7-6-7-6-7-6-7-6-7-6-6-7-6-7-|
|-4-5-4-5-4-5-4-5-4-5-4-5-4-4-5-4-5-|
|-----------------------------------|
|-----------------------------------|

Guitar 1
|-----------------------------------|
|-----------------------------------|
|-----------------------------------|
|-----------------------------------|
|-----------------------------------|
|-4-5-4-5-4-5-4-5-4-5-4-5-4-4-5-4-5-|
|-2-3-2-3-2-3-2-3-2-3-2-3-2-2-3-2-3-|

Chorus - Guitars 1 & 2
|--------------------------------|
|--------------------------------|
|--------------------------------|
|--------------------------------|
|--------------------------------|
|-----7b-----------------6---5---|
|-0-0-----0-0-0--0-0-0/6---5---4-|

Interlude - Guitar 2
|-------------------------------------|
|-------------------------------------|
|-------------------------------------|
|-3-4-3-4-3-3-4-3-4-3-4-3-4-3-3-4-3-4-|
|-------------------------------------|
|-------------------------------------|
|-------------------------------------|

Guitar 1 plays Pre-Chorus Ending

Bridge - Guitars 1 & 2
|-------------------------|
|-------------------------|
|-------------------------|
|-------------------------|
|-------------------------|
|-2--2--2-2--2--2--2--2-2-|
|-0--0--0-0--0--0--0--0-0-|

Guitar 2
|-0---------------------------------|
|-0---------------------------------|
|-0---------------------------------|
|-0---------------------------------|
|-----------------------------------|
|-----------------------------------|
|-----------------------------------|
Related for Bottled Up Inside tab