Song name
# A B C D E F G H I J K L M N O P Q R S T U V W X Y Z

Korn - Hypocrites tab

Band: Korn
Song: Hypocrites
Album: See You on the Other Side
Tabber: iAmVincent

This song can also be played in Drop C (Drop D down a whole step), but you'll have to figure it out.

Intro A (Guitar 1)
d|---------------------------------------------------------------------------------------------------------------------|
a|---------------------------------------------------------------------------------------------------------------------|
F|---------------------------------------------------------------------------------------------------------------------|
C|----2--0-0-0-2-3-3-3-0-0-0-5-----2--0-0-0-2-3-3-3-0-0-0-0-0----2--0-0-0-2-3-3-3-0-0-0-5-----2--0-0-0-2-1-1-1-3-3-3-5-|
G|---------------------------------------------------------------------------------------------------------------------|
D|-0----------------------------0-----------------------------0----------------------------0---------------------------|
A|---------------------------------------------------------------------------------------------------------------------|
 PM...................................................................................................................

Intro A (Guitar 2)
d|---------------------------------------------------------------------------------------------------------------------|
a|---------------------------------------------------------------------------------------------------------------------|
F|-3----------------------------1-----------------------------3----------------------------1---------------------------|
C|---------------1----------------------------2-----------------------------1----------------------------2-------------|
G|---------------------------------------------------------------------------------------------------------------------|
D|---------------------------------------------------------------------------------------------------------------------|
A|---------------------------------------------------------------------------------------------------------------------|

Intro B
d|---------------------------------------------------------------------------------------------------------------------|
a|---------------------------------------------------------------------------------------------------------------------|
F|---------------------------------------------------------------------------------------------------------------------|
C|----2--0-0-0-2-3-3-3-0-0-0-5-5----2--0-0-0-2-5-5-5-3-3-3-1-----2--0-0-0-2-3-3-3-0-0-0-5-----2--0-0-0-2-1-1-1-3-3-3-5-|
G|---------------------------------------------------------------------------------------------------------------------|
D|-0-----------------------------0----------------------------0----------------------------0---------------------------|
A|---------------------------------------------------------------------------------------------------------------------|
 PM...................................................................................................................

Verse A/Outro (Guitar 1)
d|-----------------------------------------------------------------------------------------------|
a|-----------------------------------------------------------------------------------------------|
F|-----------------------------------------------------------------------------------------------|
C|---------------------5------------------------------------------------5------------------------|
G|-7--7--5/7-7-X-8--6--5---7--7--5/7-7-X-10--8--6---7--7--5/7-7-X-8--6--5---7--5/7-7-X-6--8--10--|
D|-7--7--5/7-7-X-8--6--3---7--7--5/7-7-X-10--8--6---7--7--5/7-7-X-8--6--3---7--5/7-7-X-6--8--10--|
A|-5--5--3/5-5-X-6--4------5--5--3/5-5-X-8---6--4---5--5--3/5-5-X-6--4------5--3/5-5-X-4--6--8---|

Verse B
d|----------------------------|
a|----------------------------|
F|----------------------------|
C|----------------------------|
G|----------------------------|
D|----------------------------|
A|-5--5-6-5-3-5--5-6-5-3-5--5-|

Verse C
d|-------------------------|---|
a|-------------------------|---|
F|-------------------------|---|
C|-------------------------|---|
G|-7--7-8-7-5-7--7-8-7-5-7-|-7-|
D|-7--7-8-7-5-7--7-8-7-5-7-|-7-|
A|-5--5-6-5-3-5--5-6-5-3-5-|-5-|
                             ^
                             Don't play the last time
Pre-Chorus
d|-------------------------|----|
a|-------------------------|----|
F|-------------------------|----|
C|----8h9p8p7----8h9p8p7---|----|
G|-7----------7----------7-|-10-|
D|-7----------7----------7-|-10-|
A|-5----------5----------5-|-8--|
                             ^
                             Don't play the last time
Chorus (Guitar 1)
d|--------------------------------------------------------------------------------------------------------|
a|--------------------------------------------------------------------------------------------------------|
F|--------------------------------------------------------------------------------------------------------|
C|---------------------5------------------------------------------------5---------------------------------|
G|-7--7--5/7-7-X-8--6--5---7--7--5/7-7-X-10--8--6---7--7--5/7-7-X-8--6--5---------------------------------|
D|-7--7--5/7-7-X-8--6--3---7--7--5/7-7-X-10--8--6---7--7--5/7-7-X-8--6--3---------------------------------|
A|-5--5--3/5-5-X-6--4------5--5--3/5-5-X-8---6--4---5--5--3/5-5-X-6--4------------------------------------|

Chorus (Guitar 2)/Bridge (Guitar 2)/Outro (Guitar 2)
d|-17~~~~~~~~~~~~16~~~~~~~~-------------------------17~~~~~~~~~~~~16~~~~~~~~------------------------------|
a|-------------------------15~~~~~~~~~~~~-----------------------------------15~~~~~~~~~~~~----------------|
F|---------------------------------------17~~~~~~~~~--------------------------------------17~~~17(tremolo)|
C|--------------------------------------------------------------------------------------------------------|
G|--------------------------------------------------------------------------------------------------------|
D|--------------------------------------------------------------------------------------------------------|
A|--------------------------------------------------------------------------------------------------------|

Bridge (Guitar 1)
d|--------------|---------------|
a|--------------|---------------|
F|--------------|---------------|
C|----8h9p8p7---|-8h9p8p7-------|
G|-7----------7-|---------7--10-|
D|-7----------7-|---------7--10-|
A|-5----------5-|---------5--8--|
                  ^^^^^^^^^^^^^
                  Don't play the last time
SONG ORDER
Intro A (Guitar 1 Only)
Intro B
Intro A (Both Guitars)
Verse A x2
Verse B x2
Verce C x6
Pre-Chorus x4
Chorus
Verse A x2
Verse B x2
Verce C x6
Pre-Chorus x4
Chorus
Verse A
Bridge x8 (Second guitar comes in after four times)
Outro x2 (Second guitar comes in after one time)

If you have any questions feel free to email me at iAmVincent2@yahoo.com
Tap to rate this tab
# A B C D E F G H I J K L M N O P Q R S T U V W X Y Z