Song name
# A B C D E F G H I J K L M N O P Q R S T U V W X Y Z

Korn - Souvennir tab

I KNO MOST KORN ATBS ARE IN A drop-tuning but i hate drop-tuning my guitar tht far its
just a Nuisance  so created one in drop D and it sounds 100% correct. This is my fav
korn song from " see you on the other side" and it is pretty much sorted. PLZ RATE!

P.S This is my first TAB so be Gentle =)

INTRO:

E|----------------------------------------------------------------||
B|----------------------------------------------------------------||
G|----------------------------------------------------------------||
D|----------------------------------------------------------------||
A|---0---2-1-1-2-1-1-2-1------------------------------------------||
D|---0---2-1-1-2-1-1-2-1------------------------------------------||
  X4
Do this 4 times then you go into the main riff/chorus riff which is:



E|----------------------------------------------------------------||
B|----------------------------------------------------------------||
G|-------10-10-10-10--------12-13---------------------------------||
D|----------------------------------------------------------------||
A|-0-0---8--8--8--8------0--10-11---------------------------------||
D|-0-0-------------------0----------------------------------------||
Main/chorus X3

Then on the Fourth time in the chorus/main it goes

E|----------------------------------------------------------------||
B|----------------------------------------------------------------||
G|-------10-10-10-10-10-------6-7---------------------------------||
D|----------------------------------------------------------------||
A|-0-0---8--8--8--8--8----0---4-5---------------------------------||
D|-0-0--------------------0---------------------------------------||


After that you then go back into the intro which is the same as the 
verse except it sounds fuller/heavier because of the bass and drums 
whereas in the intro its just guitar, trust me on this one it IS
correct.




E|----------------------------------------------------------------||
B|----------------------------------------------------------------||
G|----------------------------------------------------------------||
D|----------------------------------------------------------------||
A|---0--2-1-1-2-1-1-----------------------------------------------||
D|---0--2-1-1-2-1-1-----------------------------------------------||
Verse

For the Pre-Chorus its just guitar and drums. The guitar goes like so:


E|----------------------------------------------------------------||
B|----------------------------------------------------------------||
G|----------------------------------------------------------------||
D|----------------------------------------------------------------||
A|----------------------------------------------------------------||
D|-3333-2222-111-0112---------------------------------------------||

It then repeats the chorus/main riff:

E|----------------------------------------------------------------||
B|----------------------------------------------------------------||
G|-------10-10-10-10--------12-13---------------------------------||
D|----------------------------------------------------------------|| 
A|-0-0---8--8--8--8------0--10-11---------------------------------|| 
D|-0-0-------------------0----------------------------------------||
Main/Chorus X3

Then on the Fourth time in the chorus/main it goes

E|----------------------------------------------------------------||
B|----------------------------------------------------------------||
G|-------10-10-10-10-10-------6-7---------------------------------||
D|----------------------------------------------------------------||
A|-0-0---8--8--8--8--8----0---4-5---------------------------------||
D|-0-0--------------------0---------------------------------------||

You then simply repeat the chorus, Pre-chorus and chorus then after
that it has a weird bridge bit with some sustained guitar notes with 
reverb,delay and whah on it.


E|----------------------------------------------------------------||
B|---8~--7-8~--7-8~--7-8~--7-5~---3~------------------------------||
G|----------------------------------------------------------------||
D|----------------------------------------------------------------||
A|----------------------------------------------------------------||
D|----------------------------------------------------------------||

then do the same but an octave up.

After this u repeat the Pre-Chorus and the chorus and finish on the

E|----------------------------------------------------------------||
B|----------------------------------------------------------------||
G|-------10-10-10-10-10-------6-7---------------------------------||
D|----------------------------------------------------------------||
A|-0-0---8--8--8--8--8----0---4-5---------------------------------||
D|-0-0--------------------0---------------------------------------||




Cheers, Rate me please............But be kind lol
Tap to rate this tab
# A B C D E F G H I J K L M N O P Q R S T U V W X Y Z