Song name
# A B C D E F G H I J K L M N O P Q R S T U V W X Y Z

Korn - Right Now Live tab

----------------------------------------------------------------------------
			 Right Now - KoRn
----------------------------------------------------------------------------

Tabbed by:Eduardo Lan
Email:eduardolan_12@hotmail.com

Tuning: 7 String Tuned Low to High (A D G C F a d)


 Munky
d|-0-|-0-|                 |-------|
a|-0-|-0-|                 |-------|
F|-0-|-0-|                 |-------|
C|-1-|-2-|                 |-0-----|
G|-2-|-3-|                 |-0-----|
D|-2-|-3-|                 |-0-----|
A|---|---|x5  and the last |-------|

 Head
d|----------------------------------------------------------------------------|
a|---------------------------------12-12-12/14-16-17-14-16-17-----------------|
F|-7/4-4-4-4/5-5-5-5-4-2-1-1-1-2-2----------------------------16-14-13--11-9-|
C|----------------------------------------------------------------------------|
G|----------------------------------------------------------------------------|
D|----------------------------------------------------------------------------|
A|----------------------------------------------------------------------------|
 Head & Munky 
w/heavy distorsion pedal
d|-----------------------------|
a|-----------------------------|
F|-----------------------------|
C|-2-2-2-2-2-2-3-3-3-5-5-3-----|
G|-2-2-2-2-2-2-3-3-3-5-5-3-----|
D|-0-0-0-0-0-0-1-1-1-3-3-1-----|
A|-----------------------------|

 Munky
d|-----------|  |------|              |----|
a|-----------|  |------|              |----|
F|-----------|  |------|              |----|
C|-2-3-5/3---|  |-2-3--|              |-0--|
G|-2-3-5/3---|  |-2-3--|              |-0--|
D|-0-1-3/1---|  |-0-1--|              |-0--|
A|-----------|  |------| and the last |----|

 Head
d|-------------------------------------------------------------------------------------------|
a|-12-12-12-12-12-12-12-12-13-13-15-15-13-13-12-12-12-9-9-8-8-8-7-7-5-5-9-9-9-0-0-0-0-0-0-0--|
F|----------------------------------------------------------------------------8-8-8-8-8-8-8--|
C|-------------------------------------------------------------------------------------------|
G|-------------------------------------------------------------------------------------------|
D|-------------------------------------------------------------------------------------------|
A|-------------------------------------------------------------------------------------------|x2

Head & Munky 
d|-----------------------------|              |----|
a|-----------------------------|              |----|
F|-----------------------------|              |----|
C|-2-2-2-2-2-2-3-3-3-5-5-3-----|              |-0--|
G|-2-2-2-2-2-2-3-3-3-5-5-3-----|              |-0--|
D|-0-0-0-0-0-0-1-1-1-3-3-1-----|              |-0--|
A|-----------------------------| and the last |----|
Tap to rate this tab
 
# A B C D E F G H I J K L M N O P Q R S T U V W X Y Z