Song name
# A B C D E F G H I J K L M N O P Q R S T U V W X Y Z

Korn - Twisted Transistor Acoustic tab

KoRn - Twisted Transistor - MTV Unplugged

Tabbed by Elvisz (elvisz84@yahoo.com)
Tuning : 7 String Tuned Low to High (A D G C F a d)

Vocal: Jonathan Houseman Davis 'Hiv'
Guitar: James Randal Shaffer 'Munky'
Bass: Reginald Arvizu 'Fieldy'

Intro:
d|-------------------------------|
a|-------------------------------|
F|-------------------------------|
C|-------------------------------|
G|-------5^6^5-----5---------5^6-|
D|-------------------------------|
A|-3-3-3-------3-3---3-3-3-3-----|

Verse:
d|-------------------------------|
a|-------------------------------|
F|-------------------------------|
C|-------------------------------|
G|-------5^6^5-----5---------5^6-|
D|-------------------------------|
A|-3-3-3-------3-3---3-3-3-3-----|

Pre-Chorus:
d|-------------------------------|
a|-------------------------------|
F|-------------------------------|
C|----5555---5555----3333---3333-|
G|----5555---5555----3333---3333-|
D|----3333---3333----1111---1111-|
A|--3x-----3x-----3x------3x-----|

d|-------------------------------|
a|-------------------------------|
F|-------------------------------|
C|----5555---5555----3333---3333-|
G|----5555---5555----3333---3333-|
D|----3333---3333----1111---1111-|
A|--3x-----3x--------------------|

Fill1:
d|----------|
a|----------|
F|----------|
C|----------|
G|-5x-6x-7x-|
D|-5x-6x-7x-|
A|-3x-4x-5x-|

Chorus:
d|-------------------------------|
a|-------------------------------|
F|-------------------------------|
C|-------------------------------|
G|-------5^6^5-----5---------5^6-|
D|-------------------------------|
A|-3-3-3-------3-3---3-3-3-3-----|

Verse:
d|-------------------------------|
a|-------------------------------|
F|-------------------------------|
C|-------------------------------|
G|-------5^6^5-----5---------5^6-|
D|-------------------------------|
A|-3-3-3-------3-3---3-3-3-3-----|

Pre-Chorus:
d|-------------------------------|
a|-------------------------------|
F|-------------------------------|
C|----5555---5555----3333---3333-|
G|----5555---5555----3333---3333-|
D|----3333---3333----1111---1111-|
A|--3x-----3x-----3x------3x-----|

d|-------------------------------|
a|-------------------------------|
F|-------------------------------|
C|----5555---5555----3333---3333-|
G|----5555---5555----3333---3333-|
D|----3333---3333----1111---1111-|
A|--3x-----3x--------------------|

Fill1:
d|----------|
a|----------|
F|----------|
C|----------|
G|-5x-6x-7x-|
D|-5x-6x-7x-|
A|-3x-4x-5x-|

Chorus:
d|-------------------------------|
a|-------------------------------|
F|-------------------------------|
C|-------------------------------|
G|-------5^6^5-----5---------5^6-|
D|-------------------------------|
A|-3-3-3-------3-3---3-3-3-3-----|

Bridge1:
d|-----------------|
a|-----------------|
F|-7777\66\5-------|
C|-7777\66\5-------|
G|-5555\44\3-3-4-5-|
D|-----------3-4-5-|
A|-----------1-2-3-|

Bridge2:
d|---------------------------------|
a|---------------------------------|
F|---------------------------------|
C|-8-88-8-88-5-55-5-55-------------|
G|-8-88-8-88-5-55-5-55-2-3-4-5-234-|
D|-6-66-6-66-3-33-3-33-2-3-4-5-234-|
A|---------------------0-1-2-3-012-|

Chorus:
d|-------------------------------|
a|-------------------------------|
F|-------------------------------|
C|-------------------------------|
G|-------5^6^5-----5---------5^6-|
D|-------------------------------|
A|-3-3-3-------3-3---3-3-3-3-----|
Tap to rate this tab
 
# A B C D E F G H I J K L M N O P Q R S T U V W X Y Z