Song name
# A B C D E F G H I J K L M N O P Q R S T U V W X Y Z

Korn - Thoughtless Acoustic tab

KoRn - Thoughtless - MTV Unplugged

Tabbed by Elvisz (elvisz84@yahoo.com)
Tuning : 7 String Tuned Low to High (A D G C F a d)

Vocal: Jonathan Houseman Davis 'Hiv'
Guitar: James Randal Shaffer 'Munky'
Bass: Reginald Arvizu 'Fieldy'

Intro:
d|---------------------------------|
a|---------------------------------|
F|---------------------------------|
C|-----------/____________\--------|
G|--222222222^22222222222222222222-|
D|---------------------------------|
A|---------------------------------|
             ^bend and back bend and back

Fill1:
d|------------|
a|------------|
F|------------|
C|-16--19--15>|
G|-14--17--13>|
D|-14--17--13>|
A|------------|

Verse:
d|---------------------------------------------------------|
A|---------------------------------------------------------|
F|---------------------------------------------------------|
C|---------7------7----7----9----9-----9-9-9-9-10-10-10-10-|
G|-6-6-6-6-7------7----7----9----9-----9-9-9-9-10-10-10-10-|
D|-6-6-6-6-5------5----5----7----7-----7-7-7-7--8--8--8--8-|
A|-4-4-4-4-----0-0--0-0--0-0--0-0---0-0--0-0-0-------------|

Pre-Chorus:
d|------------------------------------------------------|
a|------------------------------------------------------|
F|------------------------------------------------------|
C|------------------------------------------------------|
G|-5-5-5/6-6-6-6/5-5-5-5-5-5----5-5-5/6-6-6-6-3-3-3-3-3-|
D|-5-5-5/6-6-6-6/5-5-5-5-5-5----5-5-5/6-6-6-6-3-3-3-3-3-|
A|-3-3-3/4-4-4-4/3-3-3-3-3-3----3-3-3/4-4-4-4-1-1-1-1-1-|

d|--------------------------------------------------------|
a|--------------------------------------------------------|
F|--------------------------------------------------------|
C|--------------------------------------------------------|
G|-5-5-5/6-6-6-6/5-5-5-5-5-5----5-5-5/6-6-6-6-4-3-3-4-3-3-|
D|-5-5-5/6-6-6-6/5-5-5-5-5-5----5-5-5/6-6-6-6-4-3-3-4-3-3-|
A|-3-3-3/4-4-4-4/3-3-3-3-3-3----3-3-3/4-4-4-4-2-1-1-2-1-1-|

Chorus:
d|------------------------------------------------------------------|
a|------------------------------------------------------------------|
F|-1111-11-1111-11-4444-44-4444-44----------------------------------|
C|-2222-22-2222-22-5555-55-5555-55-4444-44-4444-44-2222-22-22222/44-|
G|-2222-22-2222-22-5555-55-5555-55-5555-55-5555-55-3333-33-33333/55-|
D|-0000-00-0000-00-3333-33-3333-33-5555-55-5555-55-3333-33-33333/55-|
A|---------------------------------3333-33-3333-33-1111-11-11111/33-|

Verse:
d|---------------------------------------------------------|
A|---------------------------------------------------------|
F|---------------------------------------------------------|
C|---------7------7----7----9----9-----9-9-9-9-10-10-10-10-|
G|-6-6-6-6-7------7----7----9----9-----9-9-9-9-10-10-10-10-|
D|-6-6-6-6-5------5----5----7----7-----7-7-7-7--8--8--8--8-|
A|-4-4-4-4-----0-0--0-0--0-0--0-0---0-0--0-0-0-------------|

Pre-Chorus:
d|------------------------------------------------------|
a|------------------------------------------------------|
F|------------------------------------------------------|
C|------------------------------------------------------|
G|-5-5-5/6-6-6-6/5-5-5-5-5-5----5-5-5/6-6-6-6-3-3-3-3-3-|
D|-5-5-5/6-6-6-6/5-5-5-5-5-5----5-5-5/6-6-6-6-3-3-3-3-3-|
A|-3-3-3/4-4-4-4/3-3-3-3-3-3----3-3-3/4-4-4-4-1-1-1-1-1-|

d|--------------------------------------------------------|
a|--------------------------------------------------------|
F|--------------------------------------------------------|
C|--------------------------------------------------------|
G|-5-5-5/6-6-6-6/5-5-5-5-5-5----5-5-5/6-6-6-6-4-3-3-4-3-3-|
D|-5-5-5/6-6-6-6/5-5-5-5-5-5----5-5-5/6-6-6-6-4-3-3-4-3-3-|
A|-3-3-3/4-4-4-4/3-3-3-3-3-3----3-3-3/4-4-4-4-2-1-1-2-1-1-|

Chorus:
d|------------------------------------------------------------------|
a|------------------------------------------------------------------|
F|-1111-11-1111-11-4444-44-4444-44----------------------------------|
C|-2222-22-2222-22-5555-55-5555-55-4444-44-4444-44-2222-22-22222/44-|
G|-2222-22-2222-22-5555-55-5555-55-5555-55-5555-55-3333-33-33333/55-|
D|-0000-00-0000-00-3333-33-3333-33-5555-55-5555-55-3333-33-33333/55-|
A|---------------------------------3333-33-3333-33-1111-11-11111/33-|

Bridge1:
d|---------------------------------|
a|---------------------------------|
F|---------------------------------|
C|-----------/____________\--------|
G|--222222222^22222222222222222222-|
D|---------------------------------|
A|---------------------------------|
             ^bend and back bend and back

Bridge2:
d|---------------------------------------------------------|
A|---------------------------------------------------------|
F|---------------------------------------------------------|
C|---------7------7----7----9----9-----9-9-9-9-10-10-10-10-|
G|-6-6-6-6-7------7----7----9----9-----9-9-9-9-10-10-10-10-|
D|-6-6-6-6-5------5----5----7----7-----7-7-7-7--8--8--8--8-|
A|-4-4-4-4-----0-0--0-0--0-0--0-0---0-0--0-0-0-------------|

Fill2:
d|------------|
a|------------|
F|------------|
C|-16--19--15>|
G|-14--17--13>|
D|-14--17--13>|
A|------------|

Chorus:
d|------------------------------------------------------------------|
a|------------------------------------------------------------------|
F|-1111-11-1111-11-4444-44-4444-44----------------------------------|
C|-2222-22-2222-22-5555-55-5555-55-4444-44-4444-44-2222-22-22222/44-|
G|-2222-22-2222-22-5555-55-5555-55-5555-55-5555-55-3333-33-33333/55-|
D|-0000-00-0000-00-3333-33-3333-33-5555-55-5555-55-3333-33-33333/55-|
A|---------------------------------3333-33-3333-33-1111-11-11111/33-|

Outro:
d|------|
a|------|
F|------|
C|-15->-|
G|-13->-|
D|-13->-|
A|------|
Tap to rate this tab
# A B C D E F G H I J K L M N O P Q R S T U V W X Y Z