Song name
# A B C D E F G H I J K L M N O P Q R S T U V W X Y Z

Korn - Throw Me Away Acoustic tab

KoRn - Throw Me Away - MTV Unplugged

Tabbed by Elvisz (elvisz84@yahoo.com)
Tuning : 7 String Tuned Low to High (A D G C F a d)
      
Vocal: Jonathan Houseman Davis 'Hiv'
Guitar: James Randal Shaffer 'Munky'
Bass: Reginald Arvizu 'Fieldy'

Intro:
d|-------------------------------------------------------------------------|
a|-------------------------------------------------------------------------|
F|-------------------------------------------------------------------------|
C|-------12-12-------------15-15-------------17-17-------------20-------19-|
G|----12-------12-------15-------15-------17-------17-------20-------19----|
D|-10-------------10-13-------------13-15-------------15-18-------17-------|
A|-------------------------------------------------------------------------|

Verse:
d|-------------------------------------------------------------------------|
a|-------------------------------------------------------------------------|
F|-------------------------------------------------------------------------|
C|-------12-12-------------15-15-------------17-17-------------20-------19-|
G|----12-------12-------15-------15-------17-------17-------20-------19----|
D|-10-------------10-13-------------13-15-------------15-18-------17-------|
A|-------------------------------------------------------------------------|

Chorus:
d|-------------------------------------------------|
a|-------------------------------------------------|
F|-------------------------4-444-4-4-4-7-777-6-666-|
C|-4-444-4-4-4-6-666-6-6-6-5-555-5-5-5-8-888-7-777-|
G|-5-555-5-5-5-7-777-7-7-7-5-555-5-5-5-8-888-7-777-|
D|-5-555-5-5-5-7-777-7-7-7-3-333-3-3-3-6-666-5-555-|
A|-3-333-3-3-3-5-555-5-5-5-------------------------|

Fill1:
d|------------|
a|------------|
F|------------|
C|-4-444-4-44-|
G|-5-555-5-55-|
D|-5-555-5-55-|
A|-3-333-3-33-|

Verse:
d|-------------------------------------------------------------------------|
a|-------------------------------------------------------------------------|
F|-------------------------------------------------------------------------|
C|-------12-12-------------15-15-------------17-17-------------20-------19-|
G|----12-------12-------15-------15-------17-------17-------20-------19----|
D|-10-------------10-13-------------13-15-------------15-18-------17-------|
A|-------------------------------------------------------------------------|

Chorus:
d|-------------------------------------------------|
a|-------------------------------------------------|
F|-------------------------4-444-4-4-4-7-777-6-666-|
C|-4-444-4-4-4-6-666-6-6-6-5-555-5-5-5-8-888-7-777-|
G|-5-555-5-5-5-7-777-7-7-7-5-555-5-5-5-8-888-7-777-|
D|-5-555-5-5-5-7-777-7-7-7-3-333-3-3-3-6-666-5-555-|
A|-3-333-3-3-3-5-555-5-5-5-------------------------|

Fill1:
d|------------|
a|------------|
F|------------|
C|-4-444-4-44-|
G|-5-555-5-55-|
D|-5-555-5-55-|
A|-3-333-3-33-|

Bridge1:
d|---------------------------------------------------|
a|---------------------------------------------------|
F|---------------------------------------------------|
C|-8-88-8-88-8-88/11-11-11\10-1010-10-1010\6-66-6-66-|
G|-9-99-9-99-9-99/12-12-12\11-1111-11-1111\7-77-7-77-|
D|-9-99-9-99-9-99/12-12-12\11-1111-11-1111\7-77-7-77-|
A|-7-77-7-77-7-77/10-10-10\ 9- 9 9- 9- 9 9\5-55-5-55-|

Chorus:
d|-------------------------------------------------|
a|-------------------------------------------------|
F|-------------------------4-444-4-4-4-7-777-6-666-|
C|-4-444-4-4-4-6-666-6-6-6-5-555-5-5-5-8-888-7-777-|
G|-5-555-5-5-5-7-777-7-7-7-5-555-5-5-5-8-888-7-777-|
D|-5-555-5-5-5-7-777-7-7-7-3-333-3-3-3-6-666-5-555-|
A|-3-333-3-3-3-5-555-5-5-5-------------------------|
Tap to rate this tab
 
# A B C D E F G H I J K L M N O P Q R S T U V W X Y Z