Song name
# A B C D E F G H I J K L M N O P Q R S T U V W X Y Z

Korn - Freak On A Leash Acoustic tab

---------------------------------------------------------------------------
     "Freak on a leash" (MTV Unplugged Live Version), Korn feat. Amy Lee
---------------------------------------------------------------------------
*By: Sebastián Ara. (Buenos Aires, Argentina)
*Email MSN: playing.the.angel_@hotmail.com

>Tuning: EADGBe (Turned to the Standard Version)

>Chords Diagram:
e|2--5---1---2---0-1-0-|
B|3--3---3---3---2-1-0-|
G|2--3---3---4---2-2-1-|
D|0--5---3---4---2-3-2-|
A|---x---1---2---0-3-2-|
E|---x-------------x-0-|
  D  G1  Bb  Bm  A F E

________________________________________________________________________
D                            G1
Something takes a part from me
D                          Bb
Something lost and never seen...
D                        G1
Every time I start to believe,
Bm                                 Bb
Something is taken and raped from me, from me.

D                                G1
Life's gotta always messing with me (You wanna see the light?)
D                          Bb
Can't they just let me be free? (So do I...)
D                          G1
Can't I take away of this pain (You wanna see the light?)
Bm                      Bb
I try to every nite in vain, in vain.


PRECHORUS:

e|2--------------/3----------------2----------------------|
B|3--------------/4----------------3----------------------|
G|2--------------/3----------------2----------------------|
D|0---------------0----------------0----------------------|
A|--------------------------------------------------------|
E|--------------------------------------------------------|
     Sometimes I cannot take this place.

[While there's a guitar which plays:]
*Guitar:
e|----------------------------------------------------|
B|-/7-7...--------8h7---------------------------------|
G|----------------------------------------------------|
D|----------------------------------------------------|
A|----------------------------------------------------|
E|----------------------------------------------------|

e|---------------/5------/3--------2-----------------------|
B|---------------/4------/4--------3-----------------------|
G|---------------/5------/3--------2-----------------------|
D|----------------0-------0--------0-----------------------|
A|---------------------------------------------------------|
E|---------------------------------------------------------|
   Sometimes it's My life I can't  Taste
*Guitar:
e|----------------------------------------------------|
B|-/7-7...--------8h7---------------------------------|
G|----------------------------------------------------|
D|----------------------------------------------------|
A|----------------------------------------------------|
E|----------------------------------------------------|


e|2--------------/3-------------2---------------------|
B|3--------------/4-------------3---------------------|
G|2--------------/3-------------2---------------------|
D|0---------------0-------------0---------------------|
A|----------------------------------------------------|
E|----------------------------------------------------|
     Sometimes I Cannot feel my Face.
*Guitar:
e|----------------------------------------------------|
B|-/7-7...--------8h7---------------------------------|
G|----------------------------------------------------|
D|----------------------------------------------------|
A|----------------------------------------------------|
E|----------------------------------------------------|


e|--------------/5-------/3---------2-----------------------|
B|--------------/4-------/4---------3-----------------------|
G|--------------/5-------/3---------2-----------------------|
D|---------------0--------0---------0-----------------------|
A|----------------------------------------------------------|
E|----------------------------------------------------------|
  You'll never   See me   Fall from Grace.
*Guitar:
e|-----------------------------------------------------------|
B|-/7-7...--------10-10/--8-8-------7-7----------------------|
G|-----------------------------------------------------------|
D|-----------------------------------------------------------|
A|-----------------------------------------------------------|
E|-----------------------------------------------------------|


CHORUS:

*Synth. Arrengment (or whatever instrument really is):
e|-----------------------|
B|-----------------------|
G|--------------9-9-10-9-|
D|-19----/7--------------|
A|--------------7-7-8--7-|
E|-17----/5--------------|
[repeats few times]

*Chords:

A
E         F       A
Something takes a part of me
E       F      A
You and I were meant to be
E       F       A
A cheap ... for me to lay
E         F       A
Something takes a part of me

Guitar solo:

e|---------------------------------------------------------------|
B|----------------------10---------------------------------------|
G|12-11----12-----11-12----12-11---------------------------------|
D|------12--------------------------12-12/10---------------------|
A|---------------------------------------------12-13-12/10-10/9--|
E|---------------------------------------------------------------|

(Same chords as the verses before)
Feelin' like a freak on a leash.
Feelin' like I have no release.
How many times have i felt diseased?
Nothing in my life is free, is free.

PRECHORUS
Sometimes I cannot take this place
Sometimes is my life I can't take
Sometimes I cannot feel my face
You'll never see me fall from grace.

CHORUS
Something takes a part from me
You and I were meant to be
A cheap fuck for me to lay
Something takes a part from me.


BREAK:

*Riff arrenged to guitar:
e|------------------|
B|------------------|
G|------------------|
D|------------------|
A|------------------|
E|-5-5-5-5--5h6h7h8-|

*Amy Lee screams:
e|----------------------------------------------------|
B|-2---3-2/5---3-5-6--5-3-3-2-------------------------|
G|----------------------------------------------------|
D|----------------------------------------------------|
A|----------------------------------------------------|
E|----------------------------------------------------|

e|-0---1-3---0--1/6--5-0------------------------------|
B|----------------------------------------------------|
G|----------------------------------------------------|
D|----------------------------------------------------|
A|----------------------------------------------------|
E|----------------------------------------------------|

e|-5-----8h10p7------5-7-8-7-8-7/10-8-7-8-5-----------|
B|----------------------------------------------------|
G|----------------------------------------------------|
D|----------------------------------------------------|
A|----------------------------------------------------|
E|----------------------------------------------------|


CHORUS:

*Chords:

A
E         F       A
Something takes a part of me
E       F      A
You and I were meant to be
E       F       A
A cheap ... for me to lay
E         F       A
Something takes a part of me

*Arreng:
e|-----------|
B|-----------|
G|-----------|
D|7--8--9h10-|
A|-----------|
E|5--6--7h8--|

"...Part of me..."


Ends with this chord:
e|-------|
B|-10----|
G|-7-----|
D|-8-----|
A|-9--...
E|-------
Tap to rate this tab
 
# A B C D E F G H I J K L M N O P Q R S T U V W X Y Z