Song name
# A B C D E F G H I J K L M N O P Q R S T U V W X Y Z

Korn - Killing tab

KoRn - Killing - Untitled

Tabbed by Elvisz (elvisz84@yahoo.com)
Tuning : 7 String Tuned Low to High (A D G C F a d)

Vocal: Jonathan Houseman Davis 'Hiv'
Guitar: James Randal Shaffer 'Munky'
Bass: Reginald Arvizu 'Fieldy'
Drums: Terry Bozzio

Intro:
d|-------------------------------------------|
a|-------------------------------------------|
F|-------------------------------------------|
C|----------------------------------------7~-|
G|------------------------------------8~7~7~-|
D|-55-55-5555--55-55-5555--55-55-5555-8~7~5~-|
A|-33-33-3333--33-33-3333--33-33-3333-6~5~---|
   .. .. ....  .. .. ....  .. .. ....         .palm mute

Pre-Verse:
d|--------------------------------------------|
a|--------------------------------------------|
F|--------------------------------------------|
C|--------------------------------------------|	(guitar1)
G|--------------------------------------------|
D|--------------------------------------------|
A|-3-3-3-334--3-3-3-334--3-3-3-334--3-3-3-334-|
   . . . ...  . . . ...  . . . ...  . . . ...  .palm mute

d|-------(0)------(0)-----------(0)------(0)------|
a|--------5~~~~~~~-5~~~~~~~~~~~--5~~~~~~~-5~~~~~~-|
F|--------3~~~~~~~-4r3~~~~~~~~~--3~~~~~~~-4r3~~~~-|
C|--------2~~~~~~~-2~~~~~~~~~~~--2~~~~~~~-2~~~~~~-|	(guitar2)
G|------------------------------------------------|
D|------------------------------------------------|
A|------------------------------------------------|

Verse:
d|-------------------------------------------|
a|-------------------------------------------|
F|-------------------------------------------|
C|----------------------------------------7~-|
G|------------------------------------8~7~7~-|
D|-55-55-5555--55-55-5555--55-55-5555-8~7~5~-|
A|-33-33-3333--33-33-3333--33-33-3333-6~5~---|
   .. .. ....  .. .. ....  .. .. ....         .palm mute

Chorus:
d|----------------------------------|
a|----------------------------------|
F|----------------------------------|
C|--------------7777----------------|	(guitar1)
G|-88888888888887777555555555555555-|
D|-88888888888885555555555555555555-|
A|-6666666666666----333333333333333-|

d|----------------------------------------------------------------------|
a|----------------------------------------------------------------------|
F|-191919191919191921---------------------------------------------------|
C|-xxxxxxxxxxxxxxxxxx19191919191919192219191919191919191919191919191919-|	(guitar2)
G|-171717171717171719xxxxxxxxxxxxxxxxxxxxxxxxxxxxxxxxxxxxxxxxxxxxxxxxxx-|
D|-------------------17171717171717172017171717171717171717171717171717-|
A|----------------------------------------------------------------------|

Pre-Verse:
d|--------------------------------------------|
a|--------------------------------------------|
F|--------------------------------------------|
C|--------------------------------------------|	(guitar1)
G|--------------------------------------------|
D|--------------------------------------------|
A|-3-3-3-334--3-3-3-334--3-3-3-334--3-3-3-334-|
   . . . ...  . . . ...  . . . ...  . . . ...  .palm mute

d|-------(0)------(0)-----------(0)------(0)------|
a|--------5~~~~~~~-5~~~~~~~~~~~--5~~~~~~~-5~~~~~~-|
F|--------3~~~~~~~-4r3~~~~~~~~~--3~~~~~~~-4r3~~~~-|
C|--------2~~~~~~~-2~~~~~~~~~~~--2~~~~~~~-2~~~~~~-|	(guitar2)
G|------------------------------------------------|
D|------------------------------------------------|
A|------------------------------------------------|

Verse:
d|-------------------------------------------|
a|-------------------------------------------|
F|-------------------------------------------|
C|----------------------------------------7~-|
G|------------------------------------8~7~7~-|
D|-55-55-5555--55-55-5555--55-55-5555-8~7~5~-|
A|-33-33-3333--33-33-3333--33-33-3333-6~5~---|
   .. .. ....  .. .. ....  .. .. ....         .palm mute

Chorus:
d|----------------------------------|
a|----------------------------------|
F|----------------------------------|
C|--------------7777----------------|	(guitar1)
G|-88888888888887777555555555555555-|
D|-88888888888885555555555555555555-|
A|-6666666666666----333333333333333-|

d|----------------------------------------------------------------------|
a|----------------------------------------------------------------------|
F|-191919191919191921---------------------------------------------------|
C|-xxxxxxxxxxxxxxxxxx19191919191919192219191919191919191919191919191919-|	(guitar2)
G|-171717171717171719xxxxxxxxxxxxxxxxxxxxxxxxxxxxxxxxxxxxxxxxxxxxxxxxxx-|
D|-------------------17171717171717172017171717171717171717171717171717-|
A|----------------------------------------------------------------------|

Fill1:
d|-----------------|
a|-----------------|
F|-----------------|
C|-191919191919~~~-|
G|-xxxxxxxxxxxx----|
D|-171717171717~~~-|
A|-----------------|

Bridge1:
d|------------------------------------------------------------|
a|------------------------------------------------------------|
F|------------------------------------------------------------|
C|-17----17---17----17--17----16----16---16----16----16--16---|
G|----19---19----19---19--19-----19---19----19----19---19--19-|
D|------------------------------------------------------------|
A|------------------------------------------------------------|

d|-----------------------------------------------|
a|-----------------------------------------------|
F|-----------------------------------------------|
C|-17----17---17----17--17----16----16---16~~~~~-|
G|----19---19----19---19--19-----19---19---------|
D|-----------------------------------------------|
A|-----------------------------------------------|

Bridge2:(corrected)
d|-----------------------------------|
a|-----------------------------------|
F|-----------------------------------|
C|-----------------------------------|
G|-----------------------------------|
D|-----------------------------------|
A|-8-5-85-8-5-8-585-7-5-75-7-5-7-575-|

d|-----------------------------------|
a|-----------------------------------|
F|-----------------------------------|
C|-----------------------------------|
G|-----------------------------------|
D|-----------------------------------|
A|-3-0-30-3-0-3-030-2-0-20-2-0-2-020-|

d|-----------------------------------|
a|-----------------------------------|
F|-----------------------------------|
C|-----------------------------------|
G|-----------------------------------|
D|-----------------------------------|
A|-8-5-85-8-5-8-585-7-5-75-7-5-7-575-|

d|---------------------------|
a|---------------------------|
F|---------------------------|
C|---------------------------|
G|---------------------------|
D|---------------------------|
A|-3-0-30-3-0-3-030-2-0-20-2-|

Fill2:
d|-------------------------------------------|
a|-------------------------------------------|
F|-------------------------------------------|
C|----------------------------------------7~-|	(guitar1)
G|------------------------------------8~7~7~-|
D|-55-55-5555--55-55-5555--55-55-5555-8~7~5~-|
A|-33-33-3333--33-33-3333--33-33-3333-6~5~---|
   .. .. ....  .. .. ....  .. .. ....         .palm mute

d|------------------------------------------------------------|
a|----------------------------------------------------15~~~~~~|
F|-19191919\14141414/15151515\12121212/1414\1515\1414-17^(18)-|
C|-xxxxxxxxxxxxxxxxxxxxxxxxxxxxxxxxxxxxxxxxxxxxxxxxxx---------|	(guitar2)
G|-17171717\12121212/13131313\10101010/1212\1313\1212---------|
D|------------------------------------------------------------|
A|------------------------------------------------------------|

d|----------------------------------------------------------------------------|
a|----------------------------------------------------15~~~~~~16~~~~~~17~~~~~~|
F|-19191919\14141414/15151515\12121212/1414\1515\1414-17^(18)~18^(19)~19^(20)~|
C|-xxxxxxxxxxxxxxxxxxxxxxxxxxxxxxxxxxxxxxxxxxxxxxxxxx-------------------------|	(guitar2)
G|-17171717\12121212/13131313\10101010/1212\1313\1212-------------------------|
D|----------------------------------------------------------------------------|
A|----------------------------------------------------------------------------|

Outro:(corrected)
(guitar1)
d|------------------------------------------------------|
a|------------------------------------------------------|
F|------------------------------------------------------|
C|------------------------------------------------------|
G|------------------------------------------------------|
D|---------5555---------55555---------------------------|
A|-66665555-----66665555------666655554444-666655554444-|
   ............ ............. ............ ............  .palm mute

d|------------------------------------------------------|
a|------------------------------------------------------|
F|------------------------------------------------------|
C|------------------------------------------------------|
G|-------------------------------------------------3~~~~|
D|---------5555---------55555----------------------3~~~~|
A|-66665555-----66665555------666655554444-666655551~~~~|
   ............ ............. ............ ........      .palm mute

(guitar2)
d|--------------------------------------------|
a|--------------------------------------------|
F|--------------------------------------------|
C|--------------------------------------------|
G|--------------------------------------------|
D|----------------858585---------------858585-|
A|-106106106959595------106106106959595-------|
   -T -T -T T T T T T T -T -T -T T T T T T T    T tap with pick

d|--------------------------------------------|
a|--------------------------------------------|
F|--------------------------------------------|
C|--------------------------------------------|
G|--------------------------------------------|
D|--------------------------------------------|
A|-106106106959595747474106106106959595747474-|
   -T -T -T T T T T T T -T -T -T T T T T T T    T tap with pick

d|--------------------------------------------|
a|--------------------------------------------|
F|--------------------------------------------|
C|--------------------------------------------|
G|--------------------------------------------|
D|----------------858585---------------858585-|
A|-106106106959595------106106106959595-------|
   -T -T -T T T T T T T -T -T -T T T T T T T    T tap with pick

d|--------------------------------------------|
a|--------------------------------------------|
F|--------------------------------------------|
C|--------------------------------------------|
G|--------------------------------------------|
D|--------------------------------------------|
A|-10610610695959574747410610610695959551~~~~-|
   -T -T -T T T T T T T -T -T -T T T T T       T tap with pick
Tap to rate this tab
# A B C D E F G H I J K L M N O P Q R S T U V W X Y Z