Song name
# A B C D E F G H I J K L M N O P Q R S T U V W X Y Z

Korn - Hushabye tab

KoRn - Hushabye - Untitled

Tabbed by Elvisz (elvisz84@yahoo.com)
Tuning : 7 String Tuned Low to High (A D G C F a d)

Vocal: Jonathan Houseman Davis 'Hiv'
Guitar: James Randal Shaffer 'Munky'
Bass: Reginald Arvizu 'Fieldy'
Drums: Brooks Wackerman

Intro:
d|--------------------------------------------|
a|------3-3-------3-3----------5-5-------5-5--|
F|---4---4-4---4---4-4------6---6-6---6---6-6-|
C|--------------------------------------------| (guitar1)	
G|-2---------2----------//4---------4---------|
D|--------------------------------------------|
A|--------------------------------------------|

(guitar2)
d|-222222222222\2121212121212121\\1515151515151515\14141414|
a|---------------------------------------------------------|
F|---------------------------------------------------------|
C|---------------------------------------------------------|	(guitar2)
G|---------------------------------------------------------|
D|---------------------------------------------------------|
A|---------------------------------------------------------|

d|---------------------------------------------------------|
a|15151515~~~~-15151515/17171717\141414141414141414\1212\\-|
F|---------------------------------------------------------|
C|---------------------------------------------------------|	(guitar2)
G|---------------------------------------------------------|
D|---------------------------------------------------------|
A|---------------------------------------------------------|

Verse:
d|--------------------------------------------|
a|------3-3-------3-3----------5-5-------5-5--|
F|---4---4-4---4---4-4------6---6-6---6---6-6-|
C|--------------------------------------------|
G|-2---------2----------//4---------4---------|
D|--------------------------------------------|
A|--------------------------------------------|

Fill1:
d|--------------------|
a|--------------------|
F|--------------------|
C|-16~~~-15~~~-12~~~~-|	(guitar2)
G|-xx----xx----xx-----|
D|-14~~~-13~~~-10~~~~-|
A|--------------------|

Chorus:
d|---------------------------------------|
a|---------------------------------------|
F|---------------------------------------|
C|---------------------------------------|
G|-----------------------------------7~\-|
D|-2~~-5---5--2~~-5---5--4~--2----5~-5~\-|
A|-0~~-3-0-3--0~~-3-0-3--2~---30~-3~-----|

d|-----------------------------------------|
a|-----------------------------------------|
F|-----------------------------------------|
C|-----------------------------------------|
G|-----------------------------------7~-5~-|
D|-2~~-5---5--2~~-5---5--4~--2----5~-5~-3~-|
A|-0~~-3-0-3--0~~-3-0-3--2~---30~-3~-------|

Pre-Verse:
d|--------------------------------------------|
a|------3-3-------3-3----------5-5-------5-5--|
F|---4---4-4---4---4-4------6---6-6---6---6-6-|
C|--------------------------------------------| (guitar1)	
G|-2---------2----------//4---------4---------|
D|--------------------------------------------|
A|--------------------------------------------|

(guitar2)
d|-222222222222\2121212121212121\\1515151515151515\14141414|
a|---------------------------------------------------------|
F|---------------------------------------------------------|
C|---------------------------------------------------------|	(guitar2)
G|---------------------------------------------------------|
D|---------------------------------------------------------|
A|---------------------------------------------------------|

d|---------------------------------------------------------|
a|15151515~~~~-15151515/17171717\141414141414141414\1212\\-|
F|---------------------------------------------------------|
C|---------------------------------------------------------|	(guitar2)
G|---------------------------------------------------------|
D|---------------------------------------------------------|
A|---------------------------------------------------------|

Verse:
d|--------------------------------------------|
a|------3-3-------3-3----------5-5-------5-5--|
F|---4---4-4---4---4-4------6---6-6---6---6-6-|
C|--------------------------------------------|
G|-2---------2----------//4---------4---------|
D|--------------------------------------------|
A|--------------------------------------------|

Fill1:
d|--------------------|
a|--------------------|
F|--------------------|
C|-16~~~-15~~~-12~~~~-|	(guitar2)
G|-xx----xx----xx-----|
D|-14~~~-13~~~-10~~~~-|
A|--------------------|

Fill2:
d|---------------------------------|
a|---------------------------------|
F|---------------------------------|
C|-4-44444-4-44444-7-77777-6-66666-|
G|-2-22222-2-22222-5-55555-4-44444-|
D|---------------------------------|
A|---------------------------------|

d|-----------------|
a|-----------------|
F|-----------------|
C|-6-66666-6-66666-|
G|-4-44444-4-44444-|
D|-----------------|
A|-----------------|

Chorus:
d|---------------------------------------|
a|---------------------------------------|
F|---------------------------------------|
C|---------------------------------------|
G|-----------------------------------7~\-|
D|-2~~-5---5--2~~-5---5--4~--2----5~-5~\-|
A|-0~~-3-0-3--0~~-3-0-3--2~---30~-3~-----|

d|-----------------------------------------|
a|-----------------------------------------|
F|-----------------------------------------|
C|-----------------------------------------|
G|-----------------------------------7~-5~-|
D|-2~~-5---5--2~~-5---5--4~--2----5~-5~-3~-|
A|-0~~-3-0-3--0~~-3-0-3--2~---30~-3~-------|

Bridge1:
d|-----------------------------------------------------|
a|-12121212-12-x10101010-10-x-14141414-14-x15151515\14-|
F|-11111111-11-x 9 9 9 9- 9-x-13131313-13-x14141414\13-|
C|- 9 9 9 9- 9-x 7 7 7 7- 7-x-11111111-11-x12121212\11-|
G|-----------------------------------------------------|
D|-----------------------------------------------------|
A|-----------------------------------------------------|

Bridge2:
d|----------------------------------------------------------|
a|----------------------------------------------------------|
F|----------------------------------------------------------|
C|-9999x-9999x----------------------------------7777x-8888x-|
G|-9999x-9999x--10101010x-10101010x-7777x-7777x-7777x-8888x-|
D|-7777x-7777x--10101010x-10101010x-7777x-7777x-5555x-6666x-|
A|-------------- 8 8 8 8x- 8 8 8 8x-5555x-5555x-------------|

Verse:
d|--------------------------------------------|
a|------3-3-------3-3----------5-5-------5-5--|
F|---4---4-4---4---4-4------6---6-6---6---6-6-|
C|--------------------------------------------|
G|-2---------2----------//4---------4---------|
D|--------------------------------------------|
A|--------------------------------------------|

Chorus:
d|---------------------------------------|
a|---------------------------------------|
F|---------------------------------------|
C|---------------------------------------|
G|-----------------------------------7~\-|
D|-2~~-5---5--2~~-5---5--4~--2----5~-5~\-|
A|-0~~-3-0-3--0~~-3-0-3--2~---30~-3~-----|

d|-----------------------------------------|
a|-----------------------------------------|
F|-----------------------------------------|
C|-----------------------------------------|
G|-----------------------------------7~-5~-|
D|-2~~-5---5--2~~-5---5--4~--2----5~-5~-3~-|
A|-0~~-3-0-3--0~~-3-0-3--2~---30~-3~-------|

Outro:
d|-----------------------------------------------------|
a|-12121212-12-x10101010-10-x-14141414-14-x15151515\14-|
F|-11111111-11-x 9 9 9 9- 9-x-13131313-13-x14141414\13-|
C|- 9 9 9 9- 9-x 7 7 7 7- 7-x-11111111-11-x12121212\11-|
G|-----------------------------------------------------|
D|-----------------------------------------------------|
A|-----------------------------------------------------|
Tap to rate this tab
# A B C D E F G H I J K L M N O P Q R S T U V W X Y Z