Song name
# A B C D E F G H I J K L M N O P Q R S T U V W X Y Z

Korpiklaani - Northern Fall tab

Help us improve GuitareTab! Take a short survey!
-------------------------------------------------------------------------------
			     Northern Fall - Korpiklaani
-------------------------------------------------------------------------------
Tabbed by: Boobi
Email: niccobart@hotmail.it

Tuning: Standard

INTRO (x3)

e|---------------------------------------------------------------------------|
B|---------------------------------------------------------------------------|
G|-------------------------55------------------------------------------------|
D|-------5555--------------33-55-88----55------------------------------------|
A|--7777-3333-5555------55----33-66-88-33-55---------------------------------|
E|--9999------3333------33----------66----33---------------------------------|
                      |Repeat this part only.|

VERSE (x2)

e|---------------------------------------------------------------------------|
B|---------------------------------------------------------------------------|
G|-----55--------------------------------------------------------------------|
D|-----33-55-88----55--------------------------------------------------------|
A|--55----33-66-88-33-55-----------------------------------------------------|
E|--33----------66----33-----------------------------------------------------|


CHORUS (x4)

e|---------------------------------------------------------------------------|
B|---------------------------------------------------------------------------|
G|---------------------------------------------------------------------------|
D|-----55-33-77--77--77-55---------------------------------------------------|
A|--55-33-11-55--55--55-33-55------------------------------------------------|
E|--33---------------------33------------------------------------------------|

Basically, this is it... The following parts of the song are the same as "verse" and 
Enjoy! And by the way, this is my first tab, so if you have any hints or corrections, let 
know, i'd really appreciate it!
Related for Northern Fall tab