Song name
# A B C D E F G H I J K L M N O P Q R S T U V W X Y Z

Korpiklaani - Suden Joiku tab

E---------------------------------------------------|
B-9----9-8------------------------8-9----9-11-8-----|
G---10-----8-10----10-8---------8-----10--------8-7-|
D---------------10------10-8-10---------------------|
A---------------------------------------------------|
E---------------------------------------------------|

E---------------------------------------------------|
B-9----9-8------------------------8-9----9-11-8-----|
G---10-----8-10----10-8---------8-----10--------8-10|
D---------------10------10-8-10---------------------|
A---------------------------------------------------|
E---------------------------------------------------|
Tap to rate this tab
# A B C D E F G H I J K L M N O P Q R S T U V W X Y Z