Song name
# A B C D E F G H I J K L M N O P Q R S T U V W X Y Z

Korpiklaani - Tapporauta tab

Tabbed by: Bloody Mess(aka in other sites as Dr. Acula)
comments, currections, love notes, hatemails, and pieces of my family you kidnaped goes 
dark.vegeta666@gmail.com

Tuning:standard

intro:
                   |1,3,5     |2,4          |6
                   |__________|_____________|____________________________|
|------------------|----------|-------------|----------------------------|
|------------------|----------|-------------|----------------------------|
|------------------|----------|-7-8-7-5-3-5-|----------------------------| X6
|-5-5-5-5--5-5-5-5-|-7-8-7-3--|-7-8-7-5-3-5-|-7-8-7-5-3-3-5-7-7-5-3-5----|
|-5-5-5-5--5-5-5-5-|-7-8-7-3--|-5-6-5-3-1-3-|-5-6-5-3-1-1-3-5-5-3-1-3----|
|-3-3-3-3--3-3-3-3-|-5-6-5-1--|-------------|----------------------------|

main riff:
this goes for the rest all of the parts in the rest of the sng-the violane riff, the 
and the chorus:

|------------------|
|------------------|
|-----3----5-5-5-3-|
|-5-5-3-3--5-5-5-3-|
|-5-5-1-3--3-3-7-1-|
|-3-3---1----------|
Tap to rate this tab
 
# A B C D E F G H I J K L M N O P Q R S T U V W X Y Z