Song name
# A B C D E F G H I J K L M N O P Q R S T U V W X Y Z

Korpiklaani - Northern Fall tab

This is my first tab. I have done it for you. Greetings from Poland.

Intro Violin
-------15-13-13-------------------------------------------------------------|
----------------15-13-15-13----------------15-13----------------------------|
-12-12----------------------15-12-12-14-15-------15-12-14-12------12--------|
--------------------------------------------------------------15------------|
----------------------------------------------------------------------------|
----------------------------------------------------------------------------|

Chorus Violin
----------------------------------------------------------------------------|
-15-15-15-------------------------15-15-15-15-15----------------------------|
----------15-17-15----15-15-15-17----------------15-17-15----15-15-15-17----|
-------------------17-------------------------------------17-------------17-|
----------------------------------------------------------------------------|
----------------------------------------------------------------------------|

~Mateusz P.
Tap to rate this tab
 
# A B C D E F G H I J K L M N O P Q R S T U V W X Y Z