Song name
# A B C D E F G H I J K L M N O P Q R S T U V W X Y Z

Korpiklaani - Tequila tab

Tunning - One step down

Riff 1
D---------------------------------------------------------------------|
A---------------------------------------------------------------------|
F---------------------------------------------------------------------|
C-x-4-x-4-x-4-x-4-----------------------------------------------------|
G-x-2-x-2-x-2-x-2-x-5-x-5-x-7-7-7-------------------------------------|
D-----------------x-3-x-3-x-5-5-5-------------------------------------|


Riff 2
D---------------------------------------------------------------------|
A---------------------------------------------------------------------|
F---------------------------------------------------------------------|
C-9---9-9---9-9---5---5-7---7-7---9---9-9---9-9---12-12-11-11-9-9-7-7-|
G-7---7-7---7-7---3---3-5---5-5---7---7-7---7-7---10-10-9--9--7-7-5-5-|
D---------------------------------------------------------------------|


Riff 3
D------------------------------------------------------------------------|
A------------------------------------------------------------------------|
F------------------------------------------------------------------------|
C-9---9-9---9-9---5---5-7---7-7---9---9-9---9-9---9-9-11-11-12-12-14-14--|
G-7---7-7---7-7---3---3-5---5-5---7---7-7---7-7---7-7-9--9--10-10-12-12--|
D------------------------------------------------------------------------|

Korpiklaani - "Tequila":

Riff 1 - 7x

Riff 2 - 4x

Riff 1 - 7x

Riff 2 - 4x

Break

Riff 3 - 4x

Riff 2 - 4x
Tap to rate this tab
 
# A B C D E F G H I J K L M N O P Q R S T U V W X Y Z