Song name
# A B C D E F G H I J K L M N O P Q R S T U V W X Y Z

Korpiklaani - Wooden Pints tab

                                                  Wooden Pints                  Korpiklaani

Standard Tuning
Tabbed thanks to euan_soad
Band uses power chords on You Tube and I have only tabbed root notes

intro
e --------------------------------------------------------------------------|
B---------------------------------------------------------------------------|
G---------------------------------------------------------------------------|
D------------3--------------------------------------------------------------|
A---5--3--5-----5--5--------------------------------------------------------|
E---------------------------------------------------------------------------|

Chorus riff
e --------------------------------------------------------------------------|
B---------------------------------------------------------------------------|
G---------------------------------------------------------------------------|
D----------3--5--5--3--------------3----------------------------------------|
A---5--3----------------5------3-------5--5---------------------------------|
E---------------------------6-----------------------------------------------|

Verse
e --------------------------------------------------------------------------|
B---------------------------------------------------------------------------|
G----------------------------------------------------3----------------------|
D---5--5--5--5--5--x--5--5--5--55--x--5--5--55--3-----5--5----------------|
A---------------------------------------------------------------------------|
E---------------------------------------------------------------------------|




Structure:

Intro           X       8

Chorus          X       4

Verse           X       2

Chorus          X       4

Verse           X       2

Chorus          X       4

Verse           X       2

Chorus          X       4

Lead Break over verse and chorus

Bass solo on Chorus X 2

Chorus X 8 and finish tight on last note.

Just love these guys and will tab more in due course.

comments to dave on ddouglas2414@gmail.com
Tap to rate this tab
# A B C D E F G H I J K L M N O P Q R S T U V W X Y Z