Song name
# A B C D E F G H I J K L M N O P Q R S T U V W X Y Z

Korpiklaani - Pellonpekko tab

Korpiklaani - Pellonpekko

Here is the violin part of this great song!

It's my first tab, but it sounds great!

Tuning: EADGBe (standard)

Riff A:
e|--17--17----------15--14-----------------------------------------------|
B|----------17--17---------17-15--15-------------15----------------------|
G|------------------------------------14------16----16----14-16~-14--14--|
D|----------------------------------------17-----------17----------------|
A|-----------------------------------------------------------------------|
E|-----------------------------------------------------------------------|

e|--17----------15--14--------------------15-14---------------|
B|------17--17---------17-15--15----------------17-15-14--15--|
G|--------------------------------14--16----------------------|
D|------------------------------------------------------------|
A|------------------------------------------------------------|
E|------------------------------------------------------------|

Riff A 2x

Riff B:
e|--------------------------14------------------------------------------|
B|--17--17--14--17--14--15------15--------------15----------------------|
G|----------------------------------14------16-----16----14-16~-14--14--|
D|--------------------------------------17------------17----------------|
A|----------------------------------------------------------------------|
E|----------------------------------------------------------------------|

e|----------------------14--------------15-14---------------|
B|--17--14--17--14--15------15----------------17-15-14--15--|
G|------------------------------14--16----------------------|
D|----------------------------------------------------------|
A|----------------------------------------------------------|
E|----------------------------------------------------------|


And now for the guitar part: (Distorted and standard tuning)
I'm not sure the timing is perfect, you'll have to listen to the song :) )

During Riff A & B:
e|------------------------------------------------|
B|------------------------------------------------|
G|---------7------------------------7----------7--|
D|----7----7------5----7--5----7----7----5--7--7--|
A|----7----5------5----7--5----5----5----5--7--5--|
E|----5-----------3----5--3----5---------3--5-----|
Tap to rate this tab
# A B C D E F G H I J K L M N O P Q R S T U V W X Y Z