Song name
# A B C D E F G H I J K L M N O P Q R S T U V W X Y Z

Korpiklaani - Midsummer Night tab

ONLY ONE GUITAR

E-----------------------------------------------|
B------------------------------6-5h6p5----------|
G-------7-5h7p5-----------7-5-7-------7-6-7-----|
D--7-5-7-------7-5-7----------------------------|
A-5-----------------8-7-5------------------8-7-8|
E-----------------------------------------------|

E--------------------------------------------|
B-------------------5------------------------|
G-----------5-7-5-7--7------------5----------|
D----5-7-5-7-------------------5-7-7-5--7-7--|
A-7-8-----------------8-7-8-7-8--------8-7-5-|
E--------------------------------------------|

Then guitar enters

E-----------------------------------------------|
B------------------------------6-5h6p5----------|
G-------7-5h7p5-----------7-5-7-------7-6-7-----|
D--7-5-7-------7-5-7----------------------------|
A-5-----------------8-7-5------------------8-7-8|
E-----------------------------------------------|

E----------------------------------------------|
B-------------------5--------------------------|
G-----------5-7-5-7--7------------5------------|
D----5-7-5-7-------------------5-7-7-5-10-9-7--|
A-7-8-----------------8-7-8-7-8--------8--7-5--|
E----------------------------------------------|

VERSE

E------------------------------------------------------------------|
B------------------------------------------------------------------|
G-7-7-7-7-5-5-7--------------------7-7-7-7-5-5-7-------------------|
D-7-7-7-7-5-5-7-7-5-5-5-5-7-5-3-2--7-7-7-7-5-5-7-7-5-5-5-5-7-5-3-2-|
A-5-5-5-5-3-3-5-7-5-5-5-5-7-5-3-2--5-5-5-5-3-3-5-7-5-5-5-5-7-5-3-2-|
E---------------5-3-3-3-3-5-3-1-0----------------5-3-3-3-3-5-3-1-0-|

E-----------------------------------------------|
B------------------------------6-5h6p5----------|
G-------7-5h7p5-----------7-5-7-------7-6-7-----|
D--7-5-7-------7-5-7----------------------------|
A-5-----------------8-7-5------------------8-7-8|
E-----------------------------------------------|

E----------------------------------------------|
B-------------------5--------------------------|
G-----------5-7-5-7--7------------5------------|
D----5-7-5-7-------------------5-7-7-5-10-9-7--|
A-7-8-----------------8-7-8-7-8--------8--7-5--|
E----------------------------------------------|

VERSE

E------------------------------------------------------------------|
B------------------------------------------------------------------|
G-7-7-7-7-5-5-7--------------------7-7-7-7-5-5-7-------------------|
D-7-7-7-7-5-5-7-7-5-5-5-5-7-5-3-2--7-7-7-7-5-5-7-7-5-5-5-5-7-5-3-2-|
A-5-5-5-5-3-3-5-7-5-5-5-5-7-5-3-2--5-5-5-5-3-3-5-7-5-5-5-5-7-5-3-2-|
E---------------5-3-3-3-3-5-3-1-0----------------5-3-3-3-3-5-3-1-0-|

CHORUS

E----------------------------------------------------------------------|
B----------------------------------------------------------------------|
G-----------------6-7------6-7-----------------------9-7-------------5-|
D-5------5-7------6-7------6-7------3-5------5-7-----9-7---------7---5-|
A-5------5-7------4-5-5555-4-5-5555-3-5------5-7-----7-5-5555555-7---3-|
E-3-3333-3-5-5555-------------------1-3-3333-3-5-5555------------5-----|

E----------------------------------------------------------------------|
B----------------------------------------------------------------------|
G-----------------6-7------6-7-----------------------9-7-------------5-|
D-5------5-7------6-7------6-7------3-5------5-7-----9-7---------7---5-|
A-5------5-7------4-5-5555-4-5-5555-3-5------5-7-----7-5-5555555-7---3-|
E-3-3333-3-5-5555-------------------1-3-3333-3-5-5555------------5-----|

INTRELUDE

E-----------------------------------------------|
B------------------------------6-5h6p5----------|
G-------7-5h7p5-----------7-5-7-------7-6-7-----|
D--7-5-7-------7-5-7----------------------------|
A-5-----------------8-7-5------------------8-7-8|
E-----------------------------------------------|

E--------------------------------------------|
B-------------------5------------------------|
G-----------5-7-5-7--7------------5----------|
D----5-7-5-7-------------------5-7-7-5--7-7--|
A-7-8-----------------8-7-8-7-8--------8-7-5-|
E--------------------------------------------|

E-----------------------------------------------|
B------------------------------6-5h6p5----------|
G-------7-5h7p5-----------7-5-7-------7-6-7-----|
D--7-5-7-------7-5-7----------------------------|
A-5-----------------8-7-5------------------8-7-8|
E-----------------------------------------------|

E----------------------------------------------|
B-------------------5--------------------------|
G-----------5-7-5-7--7------------5------------|
D----5-7-5-7-------------------5-7-7-5-10-9-7--|
A-7-8-----------------8-7-8-7-8--------8--7-5--|
E----------------------------------------------|

CHORUS

E----------------------------------------------------------------------|
B----------------------------------------------------------------------|
G-----------------6-7------6-7-----------------------9-7-------------5-|
D-5------5-7------6-7------6-7------3-5------5-7-----9-7---------7---5-|
A-5------5-7------4-5-5555-4-5-5555-3-5------5-7-----7-5-5555555-7---3-|
E-3-3333-3-5-5555-------------------1-3-3333-3-5-5555------------5-----|

E----------------------------------------------------------------------|
B----------------------------------------------------------------------|
G-----------------6-7------6-7-----------------------9-7-------------5-|
D-5------5-7------6-7------6-7------3-5------5-7-----9-7---------7---5-|
A-5------5-7------4-5-5555-4-5-5555-3-5------5-7-----7-5-5555555-7---3-|
E-3-3333-3-5-5555-------------------1-3-3333-3-5-5555------------5-----|

E----------------------------------------------------------------------|
B----------------------------------------------------------------------|
G-----------------6-7------6-7-----------------------9-7-------------5-|
D-5------5-7------6-7------6-7------3-5------5-7-----9-7---------7---5-|
A-5------5-7------4-5-5555-4-5-5555-3-5------5-7-----7-5-5555555-7---3-|
E-3-3333-3-5-5555-------------------1-3-3333-3-5-5555------------5-----|

E----------------------------------------------------------------------|
B----------------------------------------------------------------------|
G-----------------6-7------6-7-----------------------9-7-------------5-|
D-5------5-7------6-7------6-7------3-5------5-7-----9-7---------7---5-|
A-5------5-7------4-5-5555-4-5-5555-3-5------5-7-----7-5-5555555-7---3-|
E-3-3333-3-5-5555-------------------1-3-3333-3-5-5555------------5-----|
Tap to rate this tab
 
# A B C D E F G H I J K L M N O P Q R S T U V W X Y Z