Song name
# A B C D E F G H I J K L M N O P Q R S T U V W X Y Z

Korpiklaani - Lets Drink tab

The lead is not played on guitar, I just tabbed it for who ever needs\wants

PALM MUTE EVERY SINGLE NOTE THROUGH THE WHOLE SONG

e-12-15-12------------------12--12-15-12---------------|
B---------15-13-12--12-13-15------------15-13-12-15-15-|
G-----------------14-----------------------------------|
D------------------------------------------------------|
A------------------------------------------------------|
E------------------------------------------------------|

e-12-15-12------------------12--------------------|
B---------15-13-12--12-13-15---12-12-13-12--------|
G-----------------14-----------------------14-14--|
D-------------------------------------------------|
A-------------------------------------------------|
E-------------------------------------------------|

GUITAR:

e-----------------------|
B-----------------------|
G-2-----2-----2---------|
D-2-----2-----2-----0-0-|
A-0-0-000-0-000-0-000-0-|
E-----------------------|

e--------------------------|
B--------------------------|
G-2-----5-5---4-----2-2----|
D-2-----5-5---4-----2-2----|
A-0-0-003-3-332-2-220-0-00-|
E--------------------------|

4 times

VERSE 1:

e---------------------------------|
B---------------------------------|
G---------------------------------|
D---2---2---2---2---2---2---2---2-|
A-0-0-0-0-0-0-0-0-0-0-0-0-0-0-0-0-|
E---------------------------------|

e---------------------------------|
B---------------------------------|
G-----------5---5-----------------|
D---7---7-3-3-3-3---5---5---2---2-|
A-5-5-5-5---------3-3-3-3-0-0-0-0-|
E---------------------------------|

e---------------------------------|
B---------------------------------|
G---------------------------------|
D---2---2---2---2---2---2---2---2-|
A-0-0-0-0-0-0-0-0-0-0-0-0-0-0-0-0-|
E---------------------------------|

e---------------------------------|
B---------------------------------|
G-----------5---5-----------------|
D---7---7-3-3-3-3---5---5---2---2-|
A-5-5-5-5---------3-3-3-3-0-0-0-0-|
E---------------------------------|

CHORUS:

e-----------------------|
B-----------------------|
G-2-----2-----2---------|
D-2-----2-----2-----0-0-|
A-0-0-000-0-000-0-000-0-|
E-----------------------|

e--------------------------|
B--------------------------|
G-2-----5-5---4-----2-2----|
D-2-----5-5---4-----2-2----|
A-0-0-003-3-332-2-220-0-00-|
E--------------------------|

4 times

FLUTE SOLO:

e-----------------------|
B-----------------------|
G-2-----2-----2---------|
D-2-----2-----2-----0-0-|
A-0-0-000-0-000-0-000-0-|
E-----------------------|

e--------------------------|
B--------------------------|
G-2-----5-5---4-----2-2----|
D-2-----5-5---4-----2-2----|
A-0-0-003-3-332-2-220-0-00-|
E--------------------------|

4 times

VERSE 2: 

e---------------------------------|
B---------------------------------|
G---------------------------------|
D---2---2---2---2---2---2---2---2-|
A-0-0-0-0-0-0-0-0-0-0-0-0-0-0-0-0-|
E---------------------------------|

e---------------------------------|
B---------------------------------|
G-----------5---5-----------------|
D---7---7-3-3-3-3---5---5---2---2-|
A-5-5-5-5---------3-3-3-3-0-0-0-0-|
E---------------------------------|

e---------------------------------|
B---------------------------------|
G---------------------------------|
D---2---2---2---2---2---2---2---2-|
A-0-0-0-0-0-0-0-0-0-0-0-0-0-0-0-0-|
E---------------------------------|

e---------------------------------|
B---------------------------------|
G-----------5---5-----------------|
D---7---7-3-3-3-3---5---5---2---2-|
A-5-5-5-5---------3-3-3-3-0-0-0-0-|
E---------------------------------|

CHORUS:

e-----------------------|
B-----------------------|
G-2-----2-----2---------|
D-2-----2-----2-----0-0-|
A-0-0-000-0-000-0-000-0-|
E-----------------------|

e--------------------------|
B--------------------------|
G-2-----5-5---4-----2-2----|
D-2-----5-5---4-----2-2----|
A-0-0-003-3-332-2-220-0-00-|
E--------------------------|

4 times

FLUTE SOLO:

e-----------------------|
B-----------------------|
G-2-----2-----2---------|
D-2-----2-----2-----0-0-|
A-0-0-000-0-000-0-000-0-|
E-----------------------|

e--------------------------|
B--------------------------|
G-2-----5-5---4-----2-2----|
D-2-----5-5---4-----2-2----|
A-0-0-003-3-332-2-220-0-00-|
E--------------------------|

Throughout the song.

ENJOY! Eldad..
Tap to rate this tab
 
# A B C D E F G H I J K L M N O P Q R S T U V W X Y Z