Guitaretab - guitar tabs
Song name
# A B C D E F G H I J K L M N O P Q R S T U V W X Y Z

Korpiklaani - Tuli Kokko Came The Eagle tab

This is simply the verse-ish part and pre-verse-ish part, I haven't figured out the
such as chorus or full intro/interlude parts, it starts out all open and more or less
each note, listen for timing, then with the words it's all palm muted, this song is Tuli 
(Came the Eagle) by Korpiklaani, tuned to Drop name is Maxx, this is the first tab
i figured out on my own, and what is in this tab is 100% accurate, i checked and 
it, and you just have to listen closely to here the full open chord, but its there

Band ~ Korpiklaani
Song ~ Tuli Kokko (Came the Eagle)
Album ~ Tales Along This Road
Year ~ 2006
Instrument ~ Guitar
Tuning ~ Drop D

. = Palm Mute
~ = Hold Note

[ Tab from: ]
e |--------------------------------------|
b |--------------------------------------|
g |--------------------------------------|
d |-----0-8-7-5-3-2-3~3-5-2~2-3----------|
a |-----0-8-7-5-3-2-3~3-5-2~2-3----------|
D |-0-0-0-8-7-5-3-2-3~3-5-2~2-3----------|
    . .

e |-----------------------------------|
b |-----------------------------------|
g |-----------------------------------|  x8 (last time hold final chord)
d |-----0-8-7-5-3-2-3-3-3-5-2-2-2-3---|
a |-----0-8-7-5-3-2-3-3-3-5-2-2-2-3---|
D |-0-0-0-8-7-5-3-2-3-3-3-5-2-2-2-3---|
    . . . . . . . . . . . . . . . .

if anybody has an idea of what that other parts might be, email the idea to me at
and make sure you put in the subject "TULI KOKKO IDEA" or i wont read it
Related for Tuli Kokko Came The Eagle tab