Song name
# A B C D E F G H I J K L M N O P Q R S T U V W X Y Z

Kortatu - Zu Atrapatu Arte tab

Kortatu

Zu Atrapatu Arte (5 en el cd)



RIFF 1


|--------------------|     |---------------------|
|----------1-2-1-2-1-|     |-1--1-1-1--1-2-1-2-1-|
|-3--3-3-3-----------|     |---------------------|
|--------------------| X 3 |---------------------|
|--------------------|     |---------------------|
|--------------------|     |---------------------|



RIFF 2

|-----------------|     |-------------|
|-----------------|     |-------------|
|----6--8---------|     |----6--8--10-|
|-8--6--8--8--3-6-| X 3 |-8--6--8--10-|
|-8--4--6--8--3-6-|     |-8--4--6---8-|
|-6--------6--1-4-|     |-6-----------|



RIFF 3

|---------------------------------------------------------------------------|
|---------------------------------------------------------------------------|
|----------------11--11-11-11-11-11-11-8--8-8-8-8-8-8-10--10-10-10-10-10-10-|
|-8--8-8-8-8-8-8-11--11-11-11-11-11-11-8--8-8-8-8-8-8-10--10-10-10-10-10-10-| X 2
|-8--8-8-8-8-8-8--9---9--9--9--9--9--9-6--6-6-6-6-6-6--8---8--8--8--8--8--8-|
|-6--6-6-6-6-6-6------------------------------------------------------------|


|-----------------|
|-----------------|
|-----------------|
|-8:--8:--8:--8:--|
|-8:--8:--8:--8:--|
|-6:--6:--6:--6:--|



ORDEN

 Riff 1 X2
 Riff 2
 Riff 3
 Riff 1 X2
 Riff 2
 Riff 3 X2



LETRAS

GAZTE BAT DROGAZ HILTZEN DA 
ATRAKOAK, HILKETA TERRORISTA BAT 
DENAK, DENAK, PAPERETAN DAUDE 
ZU ATRAPATU ARTE 
ZU BURGUES MADARIKATUA 
EZ DUZU INOIZ EZER ULERTUKO 
ZURETZAT KALEAN GERTAZEN DENA 
BESTEEN ARAZOAK DIRA 
Tap to rate this tab
# A B C D E F G H I J K L M N O P Q R S T U V W X Y Z