Song name
# A B C D E F G H I J K L M N O P Q R S T U V W X Y Z

Kosava - Daj Mi Snagu Kosave chords

Highlighted       Show chord diagrams
-------------------------------------------------------------------------------
			     DAJ MI SNAGU KOSAVE - Kosava
-------------------------------------------------------------------------------
Tabbed by:Petkovski
Email:chill.bt@live.com

Tuning: Standard

Intro:
  D#        Bb   Cm              G#
e|----------------------------------------------|
B|--6/8-6-4-6~~~-6/8-8-8-8-8-6-4-2/4------------|
G|-----------------------------------3----------|
D|----------------------------------------------|
A|----------------------------------------------|
E|----------------------------------------------|

  D#        Bb   Cm                G#
e|----------------------------------------------|
B|--6/8-6-4-6~~~-6/8-11-8-6--3-4-3--------------|
G|---------------------------------5-3----------|
D|-------------------------------------6-5-3-1--|
A|----------------------------------------------|
E|----------------------------------------------|

D#        Bb        Cm
Kad te vidim,zastanem,
        G#           D#
kad te vidim,smesim se,
         Bb         Cm
spustim kofer,protrnem,
       G#           D#
tada znam da zelim te...

          Bb       Cm
Kad me vidis,zastanes,
     G#         D#
kao da si smirena,
             Bb       Cm 
pa kazes:"Mrzim cekanje".
       G#
Tada znam da zelis me...

       Bb         Cm
Svojim dahom andjele
       Bb        D#
daj mi snagu kosave
       Bb          Cm
daj mi prostor pucine
    Bb          D#
ili bar poljubi me.

D#        Bb        Cm
Kad te vidim,zastanem,
        G#           D#
kad te vidim,smesim se,
          Bb        Cm
i kazem:"Mrzim vozove".
       G#
Tada znas da zelim te...


       Bb         Cm
Svojim dahom andjele
       Bb        D#
daj mi snagu kosave
       Bb          Cm
daj mi prostor pucine
    Bb          D#
ili bar poljubi me. 

Solo:
  D#        Bb   Cm                G#
e|----------------------------------------------|
B|4-6/8-6-4-6~~~-8-8-8-8-8-6-4-2/4---4-8-6-4----|
G|---------------------------------3------------|
D|----------------------------------------------|
A|----------------------------------------------|
E|----------------------------------------------|

  D#        Bb   Cm                    G#
e|---------------------------------------------------|
B|4-6/8-6-4-6~~~-6/8-11-8-11-8-6--3-4-3--------------|
G|--------------------------------------5-3----------|
D|------------------------------------------6-5-3-1--|
A|---------------------------------------------------|
E|---------------------------------------------------|
Tap to rate this tab
 
# A B C D E F G H I J K L M N O P Q R S T U V W X Y Z