Song name
# A B C D E F G H I J K L M N O P Q R S T U V W X Y Z

Kosheen - Empty Skies tab

not so sure about it ..

0:18

E||--0----0--------------|
B||--3---------3---------|
G||--4--------------4----|  2x
D||----------------------|
A||----------------------|
E||----------------------|

0:56

E||--0--------------0--------------||
B||-------3--------------3---------||
G||------------4--------------4----||    8x
D||--------------------------------||
A||--------------------------------||
E||--------------------------------||

2:20

E||--0--------------0--------------||
B||-------3--------------3---------||
G||------------4--------------4----||    8x
D||--------------------------------||
A||--------------------------------||
E||--------------------------------||

3:00

E||-----------------|-----------------------||
B||------------5----|------------5s----0----||
G||-------4---------|-------4---------------||
D||--5--------------|--5--------------------||
A||-----------------|-----------------------||
E||-----------------|-----------------------||

ICQ : 340269759

Tap to rate this tab
# A B C D E F G H I J K L M N O P Q R S T U V W X Y Z