Song name
# A B C D E F G H I J K L M N O P Q R S T U V W X Y Z

Kotak - Tinggalkan Saja tab

          Kotak - Tinggalkan Saja Solo                               



  Q.     T T T T Q.     T T T T    H        T T T T T Q    S.  
-----------0-----0------0-2-0---|-------------0-----0-2----L--|
---------3---3---7------------3-|--L--------3---3-------------|
--------------------------------|-----------------------------|
--------------------------------|-----------------------------|
--------------------------------|-----------------------------|
--------------------------------|-----------------------------|


      3                                  3  
  T T S Q    S. T T S T T S T  S T  T E  T  
--0-2-0---------0-2-3---2-5-9-10----9-9--L-|
--------3----L------------8--------12------|
-------------------------------------------|
-------------------------------------------|
-------------------------------------------|
-------------------------------------------|


    3                               3  
  S X  S S  S  S  S S  S S Q.     T T  
--L-L-10-7-10----10---10---5------L-3-|
--------------10----8----7------------|
--------------------------------------|
--------------------------------------|
--------------------------------------|
--------------------------------------|


  3                                        3  
  X Q.     S T T S. T T S. T  T  T T T T T T  
--L-5------L-5-3-2--3-2-0------------0-2-3-5-|
------------------------------8--------------|
-----------------------------11-11-----------|
---------------------------------------------|
---------------------------------------------|
---------------------------------------------|


      3                                       3                         
  E.  X T T E.  T T E.   T T  E.  T. X    E.  S T  H        E   S  T.X  
--L---L-3-5-7---5-7-9------7-----------|-------------------------------|
------------------------10---15---L--L-|--L---L---15--------L----------|
-----------------------------18--------|-----------------------14------|
---------------------------------------|--------------------------14-L-|
---------------------------------------|-------------------------------|
---------------------------------------|-------------------------------|

Tap to rate this tab
# A B C D E F G H I J K L M N O P Q R S T U V W X Y Z