Song name
# A B C D E F G H I J K L M N O P Q R S T U V W X Y Z

Kotaro Oshio - Indigo Love tab

Indigo Love - Kotaro Oshio - Color of Life
Standard Tuning - EADGBE
BPM = 70
Refer to my profile about requesting tabs

Note: The 1st 4 bars contain artificial harmonics, these are done by fretting the note
your left hand and using your right hand to lightly touch the octave of the note and
the same string with your right hand's thumb.
Ex:  Fret 2 B string with left hand, place right hand index finger LIGHTLY on octave of
(fret 2 of B string is C#, octave of that note is on fret 14 of that string, so that's
your index finger goes).  With right index LIGHTLY touching fret 14, use your right 
thumb to pluck the string and remove index finger immediately to sound note.
     E  E    E    Q      E    Q       E    E    E    Q      E    Q
E||--------------------------------|----------------------------------|
B||-------------<>2----------------|---------------<>3----------------|
G||--------<>2---------<>2---------|----------<>4---------<>4---------|
D||-----2-------------------<>2----|-----<>5-------------------<>5----|
A||--0-----------------------------|--0-------------------------------|
E||--------------------------------|----------------------------------|


  E    E    E    Q      E    Q       E    E    E    Q      E    Q
----------------------------------|----------------------------------|
---------------<>2----------------|---------------<>3----------------|
----------<>2---------<>2---------|----------<>4---------<>4---------|
-----<>2-------------------<>2----|-----<>5-------------------<>5----|
--0-------------------------------|--0-------------------------------|
----------------------------------|----------------------------------|


                                      ^
    E  E  E  E  E  E  S  E.     E  E  E  E  E  E  E  E
|---------------------0h-2---|--0-----------------------|
|---2-----------3------------|--------2-----------------|
|*--------2------------------|--------2-----------2-----|
|*-----2-----2-----2---------|-----2-----2-----2-----2--|
|---0------------------------|--0-----------------------|
|---------------0------------|--------------0-----------|


                                          ^     ^
  E  E  E  E  E  E  S  E.     E  E  E  E  E  E  E  E
--------------------0h-2---|--0--------------------0--|
--2-----------3------------|--------2-----3--2--3-----|
--------2------------------|--------2-----2-----2-----|
-----2-----2-----2---------|-----2-----2--------------|
--0------------------------|--0-----------------------|
--------------0------------|--------------0-----0-----|


  ^           ^                          ^
  E  E  E  E  E  E  S  E.     E  E  Q    E  E  Q
--2-----------------0h-2---|--0----------------0----|
--2-----2-----0------------|------------------------|
-----2-----2---------------|--------2----2----------|
--0-----------0--2---------|-----2----------2-------|
---------------------------|--4---------------------|
---------------------------|-------------2----------|


  ^     ^
  E  E  E  E  E  E  S  E.     E  E  E  E  H
--0------------------------|------------------------||
-----2--3-----------0h-2---|--0---------------------||
--------2--2---------------|--------2-----1--------*||
-----------------2---------|-----------2-----------*||
--2-----------2------------|-----2------------------||
---------------------------|--0-----------0---------||


  ^                          ^
  E  E  Q    S  S E  Q       E  E  E  E  H           E  E  E  E  E  E  E   E
--0-----------------------|-----------------------|--------------4------------|
-----2--3----0h-2----0----|--------2--------------|--7--------------------/7--|
--------2-----------------|--2-----------2--------|--------6-----------5------|
------------------2-------|-----2-----2-----------|-----7-----7-----4---------|
--2-----------------------|--0--------------------|--6------------------------|
--------------------------|-----------------------|--------------4------------|


                                                        ^
  E  E  E  E  E  E  E  E     E  E  E  E  E  E  E  E     Q    Q    E  E  E  E
--------------------------|--------------0-----------|------------------------|
--7-----5-----------5-----|--3--------------------3--|--3----2-------------0--|
-----4-----4-----------4--|--------4-----------4-----|--2---------------2-----|
-----6-----6-----6--------|-----4-----4-----4--------|---------------2--------|
--4-----------4-----------|--2-----------2-----------|--0---------2-----------|
--------------------------|--------------------------|------------------------|


                              ^          ^             ^
  E  E  E   E  E  E  E  E     E  E  Q    E  E  Q       E  E  E  E  E  E  E  E
---------------------------|--2---------------------|--------------------------|
--2-----0h--2-----------2--|--------2----0----------|--0-----------------------|
---------------2-----2-----|-----2-------------2----|-----------2-----------2--|
-----2------------2--------|----------------2-------|--------2-----------2-----|
--2------------2-----------|--2----------2----------|-----2-----------2--------|
---------------------------|------------------------|--0-----------0-----------|


                                        ^
  E  E  E  E  Q    E  E     E  E  E  E  S  S E  Q
-------------------------|--------0-----4h-5----4----|
-------------------------|--------0------------------|
--1--------1-------9--7--|--6--------6--4----4-------|
--------2----------------|-----7---------------------|
-----2-------------------|--0-----------4------------|
--0-----------0----------|---------------------------|


  ^            ^
  E  E  E  E   Q     E  E     E  E  E   E   E  E  E   E
-----4--5--7---9--------9--|--9--7--7--------------------|
--7--5--------10----10-----|-----------10--10-----7--10--|
--6------------------------|-------------------7---------|
--0------------------------|-----------------------------|
---------------0-----------|-----7-----------------------|
--------0------------------|--7-------------7------------|


                                            ^
  S  S E  E  E  E   E  E  E     E  E  E  E  S  S E  Q
--7h-9----7------------------|--0-----------4h-5----4----|
-------7-----7-----10--9--7--|-----------0---------------|
-------7-----7---------------|--------6-----4----4-------|
-----------------------------|-----7--7------------------|
-----------------------------|--0-----------4------------|
--0-------------0------------|---------------------------|


  ^            ^
  E  E  E  E   Q     E  E     E  E  E   E   E  E  E   E
-----4--5--7---9--------9--|--9--7--7--------------------|
--7--5--------10----10-----|-----------10--10-----7--10--|
--6------------------------|-------------------7---------|
--0------------------------|-----------------------------|
---------------0-----------|--------7--------------------|
--------0------------------|--7-------------7------------|


                                  >  >  >  >  >  >  >     ^
  S  S E  Q    Q    E  E       E  E  E  E  E  E  E  E     W
--7h-9----7---------5--4--|--4g5--------5--------5-----|--5----------------|
-------7------------------|----------5--------5-----5--|--5----------------|
-------7------------------|-------7--------7-----------|--7----------------|
--------------------------|----0-----------------------|--0----------------|
--------------------------|----------------------------|-------------------|
--0------------0----------|----------------------------|-------------------|


  ^                          ^           ^
  E  E  Q    S  S E  Q       E  E  E  E  H           E  E  E  E  E  E  E   E
--0-----------------------|-----------------------|--------------4------------|
-----2--3----0h-2----0----|--------2--------------|--7--------------------/7--|
--------2-----------------|--2-----------2--------|--------6-----------5------|
------------------2-------|-----2-----2--2--------|-----7-----7-----4---------|
--2-----------------------|--0--------------------|--6------------------------|
--------------------------|-----------------------|--------------4------------|


                                                        ^     ^
  E  E  E  E  E  E  E  E     E  E  E  E  E  E  E  E     E  E  Q    E  E  E  E
--------------------------|--------------0-----------|-------------------------|
--7-----5-----------5-----|--3--------------------3--|--3-----2-------------0--|
-----4-----4-----------4--|--------4-----------4-----|--2----------------2-----|
-----6-----6-----6--------|-----4-----4-----4--------|-----0----------2--------|
--4-----------4-----------|--2-----------2-----------|--0-----0----2-----------|
--------------------------|--------------------------|-------------------------|


                              ^           ^
  E  E  E   E  E  E  E  E     E  E  E  E  E  E  Q
---------------------------|--2----------------------|
--2-----0h--2-----------2--|--------2-----0----------|
---------------2-----2-----|-----2-----2--------2----|
-----2------------2--------|-----------------2-------|
--2------------2-----------|--2-----------2----------|
---------------------------|-------------------------|


  ^
  E  E  E  E  E  E  E  E     E  E  E  E  Q    E  E
--------------------------|-------------------------|
--0-----------------------|-------------------------|
-----------2-----------2--|--1--------1-------9--7--|
--------2-----------2-----|--------2----------------|
-----2-----------2--------|-----2-------------------|
--0-----------0-----------|--0-----------0----------|


              ^               ^            ^
  E  E  E  E  S  S E  Q       E  E  E  E   Q     E  E
--------0-----4h-5----4----|-----4--5--7---9--------9--|
--------0------------------|--7--5--------10----10-----|
--6--------6--4----4-------|--6------------------------|
-----7---------------------|--0------------------------|
--0-----------4------------|---------------0-----------|
---------------------------|--------0------------------|


  E  E  E   E   E  E  E   E     S  S E  E  E  E   E  E  E
--9--7--7--------------------|--7h-9----7------------------|
-----------10--10-----7--10--|-------7-----7-----10--9--7--|
-------------------7---------|-------7-----7---------------|
-----------------------------|-----------------------------|
-----7-----------------------|-----------------------------|
--7-------------7------------|--0-------------0------------|


              ^               ^            ^
  E  E  E  E  S  S E  Q       E  E  E  E   Q     E  E
--0-----------4h-5----4----|-----4--5--7---9--------9--|
-----------0---------------|--7--5--------10----10-----|
--------6-----4----4-------|--6------------------------|
-----7--7------------------|--0------------------------|
--0-----------4------------|---------------0-----------|
---------------------------|--------0------------------|


  E  E  E   E   E  E  E   E     S  S E  Q    Q    E  E
--9--7--7--------------------|--7h-9----7---------5--4--|
-----------10--10-----7--10--|-------7------------------|
-------------------7---------|-------7------------------|
-----------------------------|--------------------------|
--------7--------------------|--------------------------|
--7-------------7------------|--0------------0----------|


                               ^
    E  E  E  E  E  E  E  E     E  E  E  Q    E  Q
--4g5--------9-----7--5-----|--4----------------0----|
----------5--5-----7-----5--|--0-----0---------------|
-------7--------------------|--6--6-----6------------|
----0-----------0-----------|----------------0-------|
----------------------------|------------------------|
----------------------------|--7---------------------|


  ^                                                 ^
  E    E    E    Q      E    Q       E  E  E  E  E  E  E  E
--2-------------------------------|--------------------------|
--2-------------------------------|-----------2-----2--3--5--|
---------------<>0----------------|--------2--------2--------|
----------<>0---------<>0---------|-----2-----------2--------|
-----<>0-------------------<>0----|--0-----------0-----------|
--3-------------------------------|--------------------------|


  ^
  E  E  E   Q    E  E   E      E  E   E  E  E   E   E   E
------------9----7--9--10--|--12---------------12--12--12--|
--7--------10--------------|----------9-----9--------------|
--6-----6------------------|---------11--------------------|
--0--0---------------------|------9------9-----------------|
---------------------------|-------------------------------|
---------------------------|---9---------------------------|


                                         ^       ^
   E   E   E   Q     E   S  E.     E  E  E   E   E   E    Q
--12------10--10---------7h-9---|--7-------------5-------(5)----|
--------------------(9)---------|--------7-------6--------------|
------11------------------------|--------7--(7)--7--(7)---------|
---9----------------------------|-----0-------------------------|
--------------------------------|-------------------------------|
--------------------------------|--0-------------0--------------|


              ^               ^            ^
  E  E  E  E  S  S E  Q       E  E  E  E   Q     E  E
--------0-----4h-5----4----|-----4--5--7---9--------9--|
--------0------------------|--7--5--------10----10-----|
--6--------6--4----4-------|--6------------------------|
-----7---------------------|--0------------------------|
--0-----------4------------|---------------0-----------|
---------------------------|--------0------------------|


  E  E  E   E   E  E  E   E     S  S E  E  E  E   E  E  E
--9--7--7--------------------|--7h-9----7------------------|
-----------10--10-----7--10--|-------7-----7-----10--9--7--|
-------------------7---------|-------7-----7---------------|
-----------------------------|-----------------------------|
-----7-----------------------|-----------------------------|
--7-------------7------------|--0-------------0------------|


              ^               ^            ^
  E  E  E  E  S  S E  Q       E  E  E  E   Q     E  E
--0-----------4h-5----4----|-----4--5--7---9--------9--|
-----------0---------------|--7--5--------10----10-----|
--------6-----4----4-------|--6------------------------|
-----7--7------------------|--0------------------------|
--0-----------4------------|---------------0-----------|
---------------------------|--------0------------------|


  E  E  E   E   E  E  E   E     S  S E  Q    Q    E  E
--9--7--7--------------------|--7h-9----7---------5--4--|
-----------10--10-----7--10--|-------7------------------|
-------------------7---------|-------7------------------|
-----------------------------|--------------------------|
--------7--------------------|--------------------------|
--7-------------7------------|--0------------0----------|


                ^               ^
    E  E  E  E  E  E  E  E      W
--4g5--------------4--5--7--|---9----------------||
----------0-----7--5--------|--10----------------||
-------6-----6--6-----------|--------------------||
----0-----------0-----------|--------------------||
----------------------------|---0----------------||
----------------------0-----|--------------------||


Duration Legend
---------------
W - whole
H - half
Q - quarter
E - 8th
S - 16th
T - 32nd
X - 64th
. - note dotted
|-n-|  - n-tuplets


Tablature Legend
----------------
L - tied note
x - dead note
g - grace note
(n) - ghost note
> - accentuded note
NH - natural harmonic
AH - artificial harmonic
TH - tapped harmonic
SH - semi harmonic
PH - pitch harmonic
h - hammer on
p - pull off
b - bend
br - bendRelease
pb - preBend
pbr - preBendRelease
brb - bendReleaseBend
\n/ - tremolo bar dip
\n - tremolo bar dive
-/n - tremolo bar Release up
/n\ - tremolo bar inverted dip
/n - tremolo bar return
-\n - tremolo bar Release down
S - shift slide
s - legato slide
/ -  slide into from below or out of upwards
\ -  slide into from above or out of downwards
~ - vibrato
W - wide vibrato
tr - trill
TP - tremolo picking
T - tapping
S - slap
P - pop
< - fade in
^ - brush up
v - brush down
Tap to rate this tab
 
# A B C D E F G H I J K L M N O P Q R S T U V W X Y Z