Song name
# A B C D E F G H I J K L M N O P Q R S T U V W X Y Z

Kotaro Oshio - Look Up At The Evening Stars tab

Look Up at the Evening Stars - Kotaro Oshio - Be Happy
Standard Tuning - EADGBE
BPM = 120
Refer to my profile about requesting tabs

     Q    Q    Q      Q         Q    Q      Q      Q     
E||-----------------<>3----|--<>2----------------<>0----|
B||------------------------|--------------<>3-----------|
G||------------0-----------|----------------------------|
D||-------0----------------|----------------------------|
A||------------------------|---------2------------------|
E||--3---------------------|----------------------------|


          NH      NH      NH             NH           NH    
  Q       Q       Q       Q       Q      Q    Q       Q     
-------------------------------|---------------------------|
-----------------------<>12----|--L------------------------|
---------------<>12------------|-------------------<>12----|
-------<>12--------------------|-------<>7----L------------|
--3----------------------------|---------------------------|
-------------------------------|---------------------------|


  Q    Q    Q      Q         Q    Q      Q      Q     
-----------------<>3----|--<>2----------------<>0----|
------------------------|--------------<>3-----------|
------------0-----------|----------------------------|
-------0----------------|----------------------------|
------------------------|---------2------------------|
--3---------------------|----------------------------|


          NH      NH      NH             NH     NH                             
  Q       Q       Q       Q       Q      Q      Q    Q       W                 
-------------------------------|--------------------------|-------------------|
-----------------------<>12----|--L----<>7----<>5----L----|--L----------------|
---------------<>12------------|--------------------------|-------------------|
-------<>12--------------------|--------------------------|-------------------|
--3----------------------------|--------------------------|-------------------|
-------------------------------|--------------------------|-------------------|


    ^                                                                  
    H        Q    Q       Q    Q    Q    Q       Q    Q     Q    Q     
|------------7---------|-------7----7---------|--7----8----10---------|
|----------------------|--0-------------------|--0----------0---------|
|*--5------------------|--0-------------------|--0----------0---------|
|*--4-------------0----|-----------------0----|-------0----------7----|
|----------------------|----------------------|-----------------------|
|------------3---------|------------3---------|-----------------------|


  Q    Q    H           Q    Q    Q    Q        Q    Q    Q    Q     
---------------------|--8----7----8---------|--------8----8---------|
--0------------------|----------------------|--10-------------------|
--0------------------|-----------------9----|------------------9----|
-------7----6--------|----------------------|-----------------------|
---------------------|------------0---------|-------------0---------|
---------------------|----------------------|-----------------------|


                                   ^                                  
  Q    Q    Q    Q       Q    Q    H            Q     Q    Q    Q     
-------7----8---------|---------------------|--12----10----8---------|
--9-------------------|--8---------7--------|------------------------|
-----------------9----|-------9----9--------|-------------------9----|
----------------------|------------7--------|--------------0---------|
------------0---------|---------------------|------------------------|
----------------------|---------------------|------------------------|


                                        ^                           
  Q    Q    Q    Q       Q    Q    Q    Q       Q    Q    H         
-------8----5---------|--6---------7---------|------------7--------|
--7-------------------|-----------------8----|-------8-------------|
-----------------7----|-------7---------7----|--7------------------|
------------0---------|--0---------0----0----|---------------------|
----------------------|----------------------|---------------------|
----------------------|----------------------|---------------------|


  Q    Q    Q    Q       Q    Q    Q    Q        Q    Q    Q    Q     
-------5----5----5----|--7----8----8----8----|--10----7--------------|
-------4----4----4----|--6----7----7----7----|--------8---------8----|
--7----5----5----5----|--7----8----8----8----|--------7--------------|
----------------------|----------------------|-------------0---------|
----------------------|----------------------|-----------------------|
----------------------|----------------------|-----------------------|


  Q    Q    Q    Q       Q    Q    Q    Q       Q    Q     Q    Q     
-------7---------3----|--3----2----0---------|------------12---------|
----------------------|----------------------|-------0---------------|
----------------------|----------------------|--1--------------------|
--0-------------------|-----------------2----|------------------9----|
----------------------|------------0---------|------------11---------|
----------------------|----------------------|-----------------------|


  Q    Q     Q     Q       Q     Q     Q    Q       H        Q    Q     
--7----8----10----------|-------10-----8---------|-----------7---------|
------------------------|------------------------|--8------------------|
------------------------|--9----------------9----|--7-------------7----|
------------------10----|-------------10---------|-----------0---------|
-------------0----------|------------------------|---------------------|
--0---------------------|------------------------|---------------------|


  Q    Q    Q    Q       Q    Q    Q    Q       Q    H.              
-------7----5---------|-------3----3---------|---------------------||
--8-------------------|--3-------------------|-------0-------------||
-----------------5----|----------------------|--0-----------------*||
------------0---------|-----------------0----|--------------------*||
----------------------|----------------------|---------------------||
----------------------|------------3---------|---------------------||


                        ^                                             
  Q    Q    H           Q     Q    Q    Q       Q    Q     Q    Q     
------------3--------|--2p----0--------------|--7----9----10---------|
-------0-------------|--2----------7----7----|-----------------------|
--0------------------|--3----------7----7----|-----------------------|
---------------------|--4----------7---------|------------------7----|
---------------------|--2--------------------|-----------------------|
---------------------|--2----------7---------|-------------7---------|


  H        Q    Q       H        Q    Q       H        Q    Q     
-----------9---------|--9--------5---------|---------------------|
--7------------------|---------------------|--5--------7----7----|
--7-------------9----|----------------6----|-----------7----7----|
---------------------|---------------------|-----------7---------|
-----------0---------|-----------0---------|---------------------|
---------------------|---------------------|-----------7---------|


  Q    Q     Q    Q       H        Q    Q       H        Q    Q     
--7----9----10---------|-----------9---------|--9--------5---------|
-----------------------|--7------------------|---------------------|
-----------------------|--7-------------9----|----------------6----|
------------------7----|---------------------|---------------------|
-----------------------|-----------0---------|-----------0---------|
-------------7---------|---------------------|---------------------|


  Q    Q    Q    Q       Q    Q     Q    Q       Q    H        Q     
----------------------|--7----9----10---------|----------------9----|
--5---------7----7----|-----------------------|--7------------------|
-------6----7----7----|-----------------------|--7------------------|
------------7---------|------------------7----|-------7-------------|
----------------------|-----------------------|----------------0----|
------------7---------|-------------7---------|---------------------|


                     ^                                                         
  Q     Q     Q      Q        Q    Q     Q     Q        Q    Q     Q     Q     
--9-----9----10S----12----|--10----9----------------|-------------------------|
---------------------9----|-------------12----10----|-------------10----10----|
---------------------9----|-------------------------|--------9----------------|
-------11------------9----|-------------------------|--11---------------------|
--------------------------|--------------------0----|--------------------0----|
--------------------------|-------------------------|-------------------------|


                  ^                                                   SH     
   Q    H         Q        Q    Q    Q    Q       Q    Q      E  E    E  E   
-----------------10----|--------8----7----5----|--L----5---------5----------|
-----------------------|--------7--------------|-------------------------5--|
--------9--------------|--------9----7----5----|--L---------<>5-------------|
--12--------------0----|--12-------------------|--------------------<>5-----|
-----------------------|------------------5----|--L-------------------------|
-----------------------|-----------------------|----------------------------|


    SH      SH      SH      SH         SH      SH   SH            
    E  E    E  E    E  E    E  E       E  E    E    E  Q    Q     
----------------------------------|-------5-------<>5--L----L----|
-------------------------------5--|------------------------------|
-------5---------------5----------|----------<>5-----------------|
---------------5------------------|--<>5-------------------------|
--<>5---------------------<>5-----|------------------------------|
----------<>5-----<>5-------------|------------------------------|


  ^                                                                            
  H        E  E  E  E     E  E  E  E  E  E  E  E     E  E  E  E   E  E  E  E   
--L--------7-----------|--------7-----7-----------|--7-----8-----10-----------|
-----------------------|--0--------0--------0-----|-----0-----0---------------|
--5--------------0-----|--------0--------------0--|---------------------7-----|
--4-----------0-----0--|-----0-----------0--------|------------------9-----9--|
--5--------------------|--------------------------|---------------------------|
-----------3-----------|--------------3-----------|--3------------0-----------|


  E  E   E   E  E  E  E  E     E  E  E  E  E  E  E  E   
--------10s--7--7-----------|--8-----7-----8-----------|
--8-------------------------|-----5-----5--------------|
-----7----------------4-----|--------------------5-----|
-------------------6-----6--|-----------------7-----7--|
----------------------------|--------------0-----------|
----------------0-----------|--------------------------|


  E  E  E  E  E  E  E  E     E  E  E  E  E  E  E  E   
-----------8--8-----------|-----------7--8-----------|
--5--------5--------------|--5--------5--------------|
--------5-----------5-----|--------5-----------5-----|
-----7-----------6-----6--|-----6-----------5-----5--|
--------------0-----------|--------------0-----------|
--------------------------|--------------------------|


  E  E  E  E  E  E  E  E      E  E   E  E  E  E  E  E   
--------------------------|--12--0--10--0--8-----------|
--5--------5--------------|----------------------7-----|
--------5-----------5-----|-------------------9-----9--|
-----5-----------5-----5--|----------------------------|
--------------0-----------|----------------0-----------|
--------------------------|----------------------------|


  E  E  E  E   E  E  E  E     E  E  E  E  E  E  E  E   
-----------8s--5-----------|--6-----------7-----------|
--7-----7------------7-----|--------7-----------0-----|
-----9------------7-----7--|-----7-----7-----0-----0--|
---------------------------|--------------------------|
---------------5-----------|--------------5-----------|
---------------------------|--------------------------|


  E  E  E  E  E  E  E  E     E  E  E  E  E  E  E  E   
--------------------------|--------------5-----5-----|
--0-----0-----------0-----|--3-----3--------3-----3--|
-----0-----0-----0-----0--|-----5-----5--------------|
--------------------------|--------------0-----------|
--------------5-----------|--------------------------|
--------------------------|--------------------------|


  E  E   Q    E  E  E  E     E  E   Q    E  E  E  E   
--5-----/7----8-----8-----|--8-----10----7-----------|
-----3--------------------|--------------------0-----|
--------/7-------7-----7--|-----7--11-------0-----0--|
--------------------------|--------------------------|
--------------5-----------|--------------5-----------|
--------------------------|--------------------------|


  E  E  E  E  E  E  E  E     E  E  E  E  E  E  E  E     E  Q     E  Q    E  E   
-----------------3-----3--|--------2--0--------------|-----0----12-------7--0--|
--0-----0-----------------|-----0-----------------0--|-------------------------|
-----0-----0--------0-----|--0-----------------0-----|--0----------------------|
--------------0-----------|-----------------2--------|--------------9----------|
--------------------------|--------------2-----------|----------11-------------|
--------------------------|-----------0--------------|-------------------0-----|


  E  E   E   E  E   E  E  E      Q     E  E  E  E  E  E   
--8--0--10-------------------|--10S----8-----------------|
-----------------------8-----|---------------------8-----|
----------------9---------9--|---------------5--------5--|
------------10-----10--------|------------6-----6--------|
---------0-------------------|---------0-----------------|
-----------------------------|---------------------------|


  Q    E  E  E  E  E  E     E  E  E  E  E  E  E  E     E  E  E  E  E  E  Q     
--8----7-----------7-----|-----7--5-----------5-----|-----3--3----------------|
-------------8-----------|--8-----------5-----------|--5-----------------1----|
----------7-----7-----7--|-----------5-----5-----5--|--------------0----------|
-------0-----------------|--------0-----------------|-----------0-----0-------|
-------------------------|--------------------------|-------------------------|
-------------------------|--------------------------|--------3----------------|


  E  E  H        E  E     E  E  E  E  E  E  E  E     E  E  Q     E  Q    E   
-----------------3-----|--3--------2--0-----------|--------0----12-------7--|
--------0--------------|--------0-----------------|--0----------------------|
--2-----------------0--|-----0--------------1-----|-----1-------------------|
-----0-----------------|-----------------------2--|-----------------9-------|
-----------------------|-----------------2--------|-------------11----------|
-----------------------|--------------4-----------|----------------------0--|


  E  E  E   E   E  E   E  E      E  E  E  E  E    E    E    E   
--0--8--0--10----------------|--10--8---------------------<>8--|
--------------------------8--|-----------------------<>5-------|
-------------------9---------|------------5-----<>5------------|
---------------10-----10-----|---------7-----7-----------------|
------------0----------------|------0--------------------------|
-----------------------------|---------------------------------|


  Q    Q    Q    Q       Q    Q    Q    Q       Q    Q    Q    Q     
--L----7--------------|--7----5--------------|--3----3--------------|
-----------------8----|-----------------5----|-----------------0----|
------------7---------|------------5---------|----------------------|
-------0--------------|-------0--------------|------------0---------|
----------------------|----------------------|----------------------|
----------------------|----------------------|-------3--------------|


  Q    Q    Q    Q       Q     H        Q        H         Q     Q     
-------7---------8----|-------10-------------|--14--------------15----|
------------8---------|--8--------------8----|------------12----------|
--0-------------------|--8--------------8----|------------12----------|
-------0---------0----|----------------------|------------------------|
----------------------|----------------------|------------------------|
----------------------|----------------------|------------------------|


   ^                  
   W                  
--15----------------||
--12----------------||
--12----------------||
--12----------------||
--------------------||
--------------------||




Duration Legend
---------------
W - whole
H - half
Q - quarter
E - 8th
S - 16th
T - 32nd
X - 64th
. - note dotted
|-n-|  - n-tuplets


Tablature Legend
----------------
L - tied note
x - dead note
g - grace note
(n) - ghost note
> - accentuded note
NH - natural harmonic
AH - artificial harmonic
TH - tapped harmonic
SH - semi harmonic
PH - pitch harmonic
h - hammer on
p - pull off
b - bend
br - bendRelease
pb - preBend
pbr - preBendRelease
brb - bendReleaseBend
\n/ - tremolo bar dip
\n - tremolo bar dive
-/n - tremolo bar Release up
/n\ - tremolo bar inverted dip
/n - tremolo bar return
-\n - tremolo bar Release down
S - shift slide
s - legato slide
/ -  slide into from below or out of upwards
\ -  slide into from above or out of downwards
~ - vibrato
W - wide vibrato
tr - trill
TP - tremolo picking
T - tapping
S - slap
P - pop
< - fade in
^ - brush up
v - brush down
Tap to rate this tab
# A B C D E F G H I J K L M N O P Q R S T U V W X Y Z