Guitaretab - guitar tabs
Song name
# A B C D E F G H I J K L M N O P Q R S T U V W X Y Z

Kotiteollisuus - Veisu tab

                         Veisu - Kotiteollisuus
                         




                          Tabbed by:Rocker M-91
                         Tuning:C#-G#-C#-F#-A#-D#




intro
|---------------------|
|---------------------|
|---------------------|
|-0-0--0-0-0-0-0--3-3-|  x4
|-0-0--0-0-0-0-0--3-3-|
|-0-0--0-0-0-0-0--3-3-|


--------------------------------------------------------------------------

|------------------------------------|
|------------------------------------|
|------------------------------------|
|-0-0-0-0--3-3-3-3--8-8-8-8--5-5-5-5-|  x2
|-0-0-0-0--3-3-3-3--8-8-8-8--5-5-5-5-|
|-0-0-0-0--3-3-3-3--8-8-8-8--5-5-5-5-|


|-----------------------------------------------------------------|
|-----------------------------------------------------------------|
|-----------------------------------------------------------------|
|-8-8-8-8--5-5-5-5--3-3-3-3--7-7-7-7--0-0-0-0--3-3-3-3-3--7-7-7-7-|x1
|-8-8-8-8--5-5-5-5--3-3-3-3--7-7-7-7--0-0-0-0--3-3-3-3-3--7-7-7-7-|
|-8-8-8-8--5-5-5-5--3-3-3-3--7-7-7-7--0-0-0-0--3-3-3-3-3--7-7-7-7-|

[ Tab from: http://www.guitaretab.com/k/kotiteollisuus/100676.html ]
|---------------------|
|---------------------|
|---------------------|
|-0-0--0-0-0-0-0--3-3-|  x2
|-0-0--0-0-0-0-0--3-3-|
|-0-0--0-0-0-0-0--3-3-|                      (tštš toistetaan kokoajan)
                                                       

---------------------------------------------------------------------------




Soolo (2.20) ja (3.35)

|------------------------------------------------
|------------------------------------------------
|------------------------------------------------
|-5--5--8--7--8--7--5----3---3--7--5--7--5--3----
|--5-----------------5----3-------------------3--
|------------------------------------------------




 ----------------------------------------|
 ----------------------------------------|
 ----------------------------------------|
 -5--5--8--7--8--7--5----3---3--7~-------|
 --5-----------------5----3--------5-----|
 ----------------------------------------|







lopussa

|--------------------------------|
|--------------------------------|
|--------------------------------|
|-0-0-0-0--3-3-3-3--7-7-7-7--0-0-| x3
|-0-0-0-0--3-3-3-3--7-7-7-7--0-0-|
|-0-0-0-0--3-3-3-3--7-7-7-7--0-0-|

Related for Veisu tab