Song name
# A B C D E F G H I J K L M N O P Q R S T U V W X Y Z

Kotiteollisuus - Valomerkki tab

Kotiteollisuus - Valomerkki - Murheen Mailla [Disc 2]

Vire : C# G# C# F# A# D#

D#--------------------------------------------------------------------------|
A#--------------------------------------------------------------------------|
F#--------------------------------------------------------------------------|
C#--------------------------------------------------------------------------|
G#--------------------------------------------------------------------------|
C#-0-3-0-35-0-3-5-0-35-0-53--0-3-0-35-0-3-5---------------------------------|

D#--------------------------------------------------------------------------|
A#--------------------------------------------------------------------------|
F#--------------------------------------------------------------------------|
C#-0-3-0-35-0-3-5-0-35-0-53--0-3-0-35-0-3-5---------------------------------|
G#-0-3-0-35-0-3-5-0-35-0-53--0-3-0-35-0-3-5---------------------------------|
C#-0-3-0-35-0-3-5-0-35-0-53--0-3-0-35-0-3-5---------------------------------|

D#-------------------------------------------------------------------------|
A#-------------------------------------------------------------------------|
F#-------------------------------------------------------------------------|
C#-00-0-0-0-0-0-0-000-33-3-3-55-5-5----------------------------------------|
G#-00-0-0-0-0-0-0-000-33-3-3-55-5-5----------------------------------------|
C#-00-0-0-0-0-0-0-000-33-3-3-55-5-5-3b-------------------------------------|

Chorus
D#-------------------------------------------------------------------------|
A#-------------------------------------------------------------------------|
F#-------------------------------------------------------------------------|
C#-10-10-10-10-10-10-10-10-10-10-10-10-8-8-8-8-8-8-8-8-8-8-3-3-3-3-3-3-3-3-|
G#-10-10-10-10-10-10-10-10-10-10-10-10-8-8-8-8-8-8-8-8-8-8-3-3-3-3-3-3-3-3-|
C#-10-10-10-10-10-10-10-10-10-10-10-10-8-8-8-8-8-8-8-8-8-8-3-3-3-3-3-3-3-3-|

D#-------------------------------------------------------------------------|
A#-------------------------------------------------------------------------|
F#-------------------------------------------------------------------------|
C#-0-0-0-0-0-0-0-12-12-12-12-12-12-10-10-----------------------------------|
G#-0-0-0-0-0-0-0-12-12-12-12-12-12-10-10-----------------------------------|
C#-0-0-0-0-0-0-0-12-12-12-12-12-12-10-10-----------------------------------|
Tap to rate this tab
# A B C D E F G H I J K L M N O P Q R S T U V W X Y Z