Song name
# A B C D E F G H I J K L M N O P Q R S T U V W X Y Z

Kotiteollisuus - Mahtisanat tab

Kotiteollisuus - Mahtisanat

Alku
        1. 2.  |   3.   
D#|------------|-------------------------|
A#|------------|-------------------------|
F#|------------|-------------------------|
C#|-0-0--2-3-0-|-0-0--2-3-0--3-5-0-10-12-|
G#|-0-0--2-3-0-|-0-0--2-3-0--3-5-0-10-12-|
C#|-0-0--2-3-0-|-0-0--2-3-0--3-5-0-10-12-|

Säkeistö
                          2x
D#|-------------------------|
A#|-------------------------|
F#|-------------------------|
C#|-333-333-333-333-333-222-|
G#|-333-333-333-333-333-222-|
C#|-333-333-333-333-333-222-|
  PM-----------------------|

D#|-------------------------------------|
A#|-------------------------------------|
F#|-------------------------------------|
C#|-555-555-555-555-555-222-333-333-2-0-|
G#|-555-555-555-555-555-222-333-333-2-0-|
C#|-555-555-555-555-555-222-333-333-2-0-|
  PM-----------------------------|
Koko säkeistö soitetaan kaksi kertaa


Kertsi 2x
Kertosäkeen soinnut. Kuuntele biisi ja soita sen mukaisesti.
D#|---|---|---|---|---|
A#|---|---|---|---|---|
F#|-5-|---|---|---|---|
C#|-5-|-3-|-5-|-0-|-5-|
G#|-3-|-3-|-5-|-0-|-5-|
C#|---|-3-|-5-|-0-|-5-|

Alku 2x

Säkeistö 2x

Kertsi 3x

Soolo. Kertsi pauhaa takana.

D#|------------------------------------------------|
A#|------------------------------------------------|
F#|----5-4--5-4-5----------------5-4---5-----------|
C#|--5-------------2-3---3---2-5-----5---2-3---3---|
G#|--------------------3---3-----------------3---3-|
C#|------------------------------------------------|


Tabin selvitti Tommi Heinisaari
Tap to rate this tab
# A B C D E F G H I J K L M N O P Q R S T U V W X Y Z