Song name
# A B C D E F G H I J K L M N O P Q R S T U V W X Y Z

Kotiteollisuus - Loveen Langennut tab

Intro

gtr 1
|--------------------------------------------|
|--------------------------------------------|
|--------------------------------------------|
|-9--5---/12--7------7-9--9-9-10-9-7---------|
|----------------10----------------10--(9-10)|
|--------------------------------------------|
                                     (play only 2nd time)

gtr 2
|------------------------------------------------------------------|
|------------------------------------------------------------------|
|-------------------------------------------------5-5-5-5-5-5-5-5--|
|-5-5-5-5-5-5-5-5-0-0-0-0-0-0-0-0-2-2-2-2-2-2-2-2-5-5-5-5-5-5-5-5--|
|-5-5-5-5-5-5-5-5-0-0-0-0-0-0-0-0-2-2-2-2-2-2-2-2-3-3-3-3-3-3-3-3--|
|-5-5-5-5-5-5-5-5-0-0-0-0-0-0-0-0-2-2-2-2-2-2-2-2------------------|

Verse (Palm mute all notes)
|-----------------------------------------------------------------|
|-----------------------------------------------------------------|
|-----------------------------------------------------------------|
|-5-5-5-5-5-5-5-5-2-2-2-2-2-2-2-2-5-5-5-5-5-5-5-5-2-2-2-2-2-2-2-2-|
|-5-5-5-5-5-5-5-5-2-2-2-2-2-2-2-2-5-5-5-5-5-5-5-5-2-2-2-2-2-2-2-2-|
|-5-5-5-5-5-5-5-5-2-2-2-2-2-2-2-2-5-5-5-5-5-5-5-5-2-2-2-2-2-2-2-2-|

|-----------------------------------------------------------------|
|-----------------------------------------------------------------|
|-----------------------------------------------------------------|
|-5-5-5-5-5-5-5-5-2-2-2-2-2-2-2-2-5-5-5-5-5-5-5-5-2-2-2-2-2-2-2-2-|
|-5-5-5-5-5-5-5-5-2-2-2-2-2-2-2-2-5-5-5-5-5-5-5-5-2-2-2-2-2-2-2-2-|
|-5-5-5-5-5-5-5-5-2-2-2-2-2-2-2-2-5-5-5-5-5-5-5-5-2-2-2-2-2-2-2-2-|

|-----------------------------------------------------------------|
|-----------------------------------------------------------------|
|-----------------------------------------------------------------|
|-0-0-0-0-0-0-0-0-5-5-5-5-5-5-5-5-7-7-7-7-7-7-7-7-0-0-0-0-0-0-0-0-|
|-0-0-0-0-0-0-0-0-5-5-5-5-5-5-5-5-7-7-7-7-7-7-7-7-0-0-0-0-0-0-0-0-|
|-0-0-0-0-0-0-0-0-5-5-5-5-5-5-5-5-7-7-7-7-7-7-7-7-0-0-0-0-0-0-0-0-|

|-----------------------------------------------------------------|
|-----------------------------------------------------------------|
|-----------------------------------------------------------------|
|-5-5-5-5-5-5-5-5-2-2-2-2-2-2-2-2-5-5-5-5-5-5-5-5-2-2-2-2-2-2-2-2-|
|-5-5-5-5-5-5-5-5-2-2-2-2-2-2-2-2-5-5-5-5-5-5-5-5-2-2-2-2-2-2-2-2-|
|-5-5-5-5-5-5-5-5-2-2-2-2-2-2-2-2-5-5-5-5-5-5-5-5-2-2-2-2-2-2-2-2-|

Chorus

|------------------------------------------------------------------|
|------------------------------------------------------------------|
|-------------------------------------------------5-5-5-5-5-5-5-5--|
|-5-5-5-5-5-5-5-5-0-0-0-0-0-0-0-0-2-2-2-2-2-2-2-2-5-5-5-5-5-5-5-5--|
|-5-5-5-5-5-5-5-5-0-0-0-0-0-0-0-0-2-2-2-2-2-2-2-2-3-3-3-3-3-3-3-3--|
|-5-5-5-5-5-5-5-5-0-0-0-0-0-0-0-0-2-2-2-2-2-2-2-2------------------|

After Chorus (P.M. all)
|------------------------------------------------------------------|
|------------------------------------------------------------------|
|------------------------------------------------------------------|
|-5-5-5--5-5-5--5-5---------------------5-5-5--5-5-5--5-5----------|
|-5-5-5--5-5-5--5-5---------------------5-5-5--5-5-5--5-5----------|
|-5-5-5--5-5-5--5-5---------------------5-5-5--5-5-5--5-5----------|

Verse

Chorus

Bridge (P.M. all 1st and 2nd time)
|---------------------------------|
|---------------------------------|
|---------------------------------|
|-5-5-5-5-5-5-5-5-8-8-8-8-8-8-8-8-|
|-5-5-5-5-5-5-5-5-8-8-8-8-8-8-8-8-|
|-5-5-5-5-5-5-5-5-8-8-8-8-8-8-8-8-|

|-------------------------------------------------|
|-------------------------------------------------|
|-------------------------------------------------|
|-10-10-10-10-10-10-10-10-12-12-12-12-12-12-12-12-|
|-10-10-10-10-10-10-10-10-12-12-12-12-12-12-12-12-|
|-10-10-10-10-10-10-10-10-12-12-12-12-12-12-12-12-|

Chorus

Outro

gtr 1
|-------------------------------------------------|
|-------------------------------------------------|
|-------------------------------------------------|
|-5--5-5-7-5-4-4--0--4--5--5----------------------|
|-----------------------------2--2/3--3--3-2-0----|
|-------------------------------------------------|

gtr 2
|------------------------------------------------------------------|
|------------------------------------------------------------------|
|-------------------------------------------------5-5-5-5-5-5-5-5--|
|-5-5-5-5-5-5-5-5-0-0-0-0-0-0-0-0-2-2-2-2-2-2-2-2-5-5-5-5-5-5-5-5--|
|-5-5-5-5-5-5-5-5-0-0-0-0-0-0-0-0-2-2-2-2-2-2-2-2-3-3-3-3-3-3-3-3--|
|-5-5-5-5-5-5-5-5-0-0-0-0-0-0-0-0-2-2-2-2-2-2-2-2------------------|


Last time

gtr 1
|--------------------------------------|
|--------------------------------------|
|--------------------------------------|
|-5--5-5-7-5-4--0--4--5--5-------------|
|-----------------------------2--2/3---|
|--------------------------------------|

gtr 2
|----------------------------------------------------------|
|----------------------------------------------------------|
|-------------------------------------------------5--------|
|-5-5-5-5-5-5-5-5-0-0-0-0-0-0-0-0-2-2-2-2-2-2-2-2-5--------|
|-5-5-5-5-5-5-5-5-0-0-0-0-0-0-0-0-2-2-2-2-2-2-2-2-3--------|
|-5-5-5-5-5-5-5-5-0-0-0-0-0-0-0-0-2-2-2-2-2-2-2-2----------|
Tap to rate this tab
# A B C D E F G H I J K L M N O P Q R S T U V W X Y Z