Song name
# A B C D E F G H I J K L M N O P Q R S T U V W X Y Z

Kotiteollisuus - Piru Irti tab

Intro
|----------------------------------------------------------|
|----------------------------------------------------------|
|----------------------------------------------------------|
|-0-3-2-0-3--0-3--0-3--1--0-3-2-0-3--0-0-0-0-0-0-0-0-0-0---|
|-0-3-2-0-3--0-3--0-3--1--0-3-2-0-3--0-0-0-0-0-0-0-0-0-0---|
|-0-3-2-0-3--0-3--0-3--1--0-3-2-0-3--0-0-0-0-0-0-0-0-0-0---|
   (x=palm mute or left hand mute)   x x x x x x x x x x

Verse
|--------------------------------------------|
|--------------------------------------------|
|--------------------------------------------|
|--------------------------------------------|
|-0-0--0-----0-0--0-----0-0--0-----0-0--0----|
|-0-0--0-10--0-0--0-10--0-0--0-10--0-0--0-10-|
  x x  x     x x  x     x x  x     x x  x

Pre Chorus

|----------------------------------------|
|----------------------------------------|
|----------------------------------------|
|-5-----7-----8-----10-------------------|
|-5-----7-----8-----10-------------------|
|-5-----7-----8-----10-------------------|

Chorus

|------------------------------------------------------------------------|
|------------------------------------------------------------------------|
|------------------------------------------------------------------------|
|-0-0-0-0-0-0-8-8-7-7-7-7-7-7-5-5-10-10-10-10-10-10-8-8-7-7-7-7-7-7-8-5--|
|-0-0-0-0-0-0-8-8-7-7-7-7-7-7-5-5-10-10-10-10-10-10-8-8-7-7-7-7-7-7-8-5--|
|-0-0-0-0-0-0-8-8-7-7-7-7-7-7-5-5-10-10-10-10-10-10-8-8-7-7-7-7-7-7-8-5--|

Intro

Verse

Pre Chorus

Chorus

Outro
|--------------------------------------------|
|--------------------------------------------|
|--------------------------------------------|
|--------------------------------------------|
|-0-0--0-----0-0--0-----0-0--0-----0-0--0-0--|
|-0-0--0-10--0-0--0-10--0-0--0-10--0-0--0-0--|

Tap to rate this tab
 
# A B C D E F G H I J K L M N O P Q R S T U V W X Y Z