Song name
# A B C D E F G H I J K L M N O P Q R S T U V W X Y Z

Kotiteollisuus - Syli tab

-------------------------------------------------------------------------------
			     Syli - Kotiteollisuus
-------------------------------------------------------------------------------
Tabbed by: Luosnaeco
Email:Soppennn@hotmail.com

Tuning: C#G#C#F#A#D#
Intro
e|-----------------------------------------------------------------------------|
B|-----------------------------------------------------------------------------|
G|-----------------------------------------------------------------------------|
D|-----------------------------------------------------------------------------|
A|------12------10-------9-------7~---------3-0-3-0-3-5~-----------------------|
E|---0------0--------0--------0--------0-0-------------------------------------|
Verse
e|-----------------------------------------------------------------------------|
B|-----------------------------------------------------------------------------|
G|-----------------------------------------------------------------------------|
D|----5-----------------7------------------------------------------------------|
A|----3-----------------5------------------------------------------------------|
E|-----------------------------------------------------------------------------|
Chorus
e|-----------------------------------------------------------------------------|
B|-----------------------------------------------------------------------------|
G|-----------------------------------------------------------------------------|
D|---7-7-7-7-7-7-7-7----0-0-0-0-0-0-0-0----3-3-3-3-3-3-3-3---------------------|
A|---7-7-7-7-7-7-7-7----0-0-0-0-0-0-0-0----3-3-3-3-3-3-3-3---------------------|
E|---7-7-7-7-7-7-7-7----0-0-0-0-0-0-0-0----3-3-3-3-3-3-3-3---------------------|

e|-----------------------------------------------------------------------------|
B|-----------------------------------------------------------------------------|
G|---------------------5-5-5-5-5-5-5-5-----------------------------------------|
D|--5-5-5-5-5-5-5-5----5-5-5-5-5-5-5-5----5-5-5-5-5-5-5-5----------------------|
A|--5-5-5-5-5-5-5-5----3-3-3-3-3-3-3-3----5-5-5-5-5-5-5-5----------------------|
E|--5-5-5-5-5-5-5-5-----------------------5-5-5-5-5-5-5-5----------------------|
Outro
e|-----------------------------------------------------------------------------|
B|-----------------------------------------------------------------------------|
G|-----------------------------------------------------------------------------|
D|---3---2---0--2----------3-3--2-0-2--1-0-------------------------------------|
A|---3---2---0--2----------3-3--2-0-2--1-0-------------------------------------|
E|---3---2---0--2----------3-3--2-0-2--1-0-------------------------------------|


| /  slide up
| \  slide down
| h  hammer-on
| p  pull-off
| ~  vibrato
| +  harmonic
| x  Mute note
Tap to rate this tab
# A B C D E F G H I J K L M N O P Q R S T U V W X Y Z