Song name
# A B C D E F G H I J K L M N O P Q R S T U V W X Y Z

Kotiteollisuus - Kuolemanvakavaa tab

Finnish band Kotiteollisuus
www.kotiteollisuus.com

KOTITEOLLISUUS: KUOLEMANVAKAVAA by DwR
ииииииииииииииииииииииииииииииииииииии
NOTE! Tuning: Eb (E flat)


~intro~
e|------------------------------------------------------------|
B|------------------------------------------------------------|
G|------------------------------------------------------------|
D|--------3---------3--5-3-2----------------------------------|
A|--------3---------3--5-3-2----------------------------------|
E|--0-8-0-1---0-8-0-1--3-1-0----------------------------------| 2x


e|-----------------------------------------------------------------|
B|-----------------------------------------------------------------|
G|-----------------------------------------------------------------|
D|--------3-3-3-3-3-3-3-3-3-3-3-3--------3--5-3-2-2-2-2-2-2-2-2-2--|
A|--------3-3-3-3-3-3-3-3-3-3-3-3--------3--5-3-2-2-2-2-2-2-2-2-2--|
E|--0-8-0-1-1-1-1-1-1-1-1-1-1-1-1--0-8-0-1--3-1-0-0-0-0-0-0-0-0-0--| 2x

~verse~
e|-----------------------------------------------------------------|
B|-----------------------------------------------------------------|
G|-----------------------------------------------------------------|
D|--------3-3-3-3-3-3-3-3-3-3-3-3--------3--5-3-2-2-2-2-2-2-2-2-2--|
A|--------3-3-3-3-3-3-3-3-3-3-3-3--------3--5-3-2-2-2-2-2-2-2-2-2--|
E|--0-8-0-1-1-1-1-1-1-1-1-1-1-1-1--0-8-0-1--3-1-0-0-0-0-0-0-0-0-0--| 3x
           ^^^^^^Palm Mute^^^^^^                 ^^^Palm Mute^^^


e|--------------------------------------------------------------|
B|--------------------------------------------------------------|
G|--------------------------------------------------------------|
D|--------3-3-3-3-3-3-3-3-3-3-3-3--------3--5-3-2-2-2-2-2-2-2---|
A|--------3-3-3-3-3-3-3-3-3-3-3-3--------3--5-3-2-2-2-2-2-2-2---|
E|--0-8-0-1-1-1-1-1-1-1-1-1-1-1-1--0-8-0-1--3-1-0-0-0-0-0-0-0---| 1x
           ^^^^^^Palm Mute^^^^^^                 ^Palm Mute^

~chorus~
e|-----------------------------------------------------------------------------|
B|-----------------------------------------------------------------------------|
G|-----------------------------------------------------------------------------|
D|--10-10-10-10-10-10-10-10--3-3-3-3-3-3-3-3--2-2-2-2-2-2-2-2--3-3-3-3-3-3-3-3-|
A|--10-10-10-10-10-10-10-10--3-3-3-3-3-3-3-3--2-2-2-2-2-2-2-2--3-3-3-3-3-3-3-3-|
E|---8--8--8--8--8--8--8--8--1-1-1-1-1-1-1-1--0-0-0-0-0-0-0-0--1-1-1-1-1-1-1-1-| 2x


e|--------------------------------------------------------------------------------------|
B|--------------------------------------------------------------------------------------|
G|--------------------------------------------------------------------------------------|
D|--10-10-10-10-10-10-10-10--3-3-3-3-3-3-3-3--2-2-2-2-2-2-2-2--3-3-3-3-3-3-3-3-3-3-3-3-3|
A|--10-10-10-10-10-10-10-10--3-3-3-3-3-3-3-3--2-2-2-2-2-2-2-2--3-3-3-3-3-3-3-3-3-3-3-3-3|
E|---8--8--8--8--8--8--8--8--1-1-1-1-1-1-1-1--0-0-0-0-0-0-0-0--1-1-1-1-1-1-1-1-1-1-1-1-1| 1x

~verse~
e|-----------------------------------------------------------------|
B|-----------------------------------------------------------------|
G|-----------------------------------------------------------------|
D|--------3-3-3-3-3-3-3-3-3-3-3-3--------3--5-3-2-2-2-2-2-2-2-2-2--|
A|--------3-3-3-3-3-3-3-3-3-3-3-3--------3--5-3-2-2-2-2-2-2-2-2-2--|
E|--0-8-0-1-1-1-1-1-1-1-1-1-1-1-1--0-8-0-1--3-1-0-0-0-0-0-0-0-0-0--| 2x


e|-----------------------------------------------------------------|
B|-----------------------------------------------------------------|
G|-----------------------------------------------------------------|
D|--------3-3-3-3-3-3-3-3-3-3-3-3--------3--5-3-2-2-2-2-2-2-2-2-2--|
A|--------3-3-3-3-3-3-3-3-3-3-3-3--------3--5-3-2-2-2-2-2-2-2-2-2--|
E|--0-8-0-1-1-1-1-1-1-1-1-1-1-1-1--0-8-0-1--3-1-0-0-0-0-0-0-0-0-0--| 3x
           ^^^^^^Palm Mute^^^^^^                 ^^^Palm Mute^^^


e|--------------------------------------------------------------|
B|--------------------------------------------------------------|
G|--------------------------------------------------------------|
D|--------3-3-3-3-3-3-3-3-3-3-3-3--------3--5-3-2-2-2-2-2-2-2---|
A|--------3-3-3-3-3-3-3-3-3-3-3-3--------3--5-3-2-2-2-2-2-2-2---|
E|--0-8-0-1-1-1-1-1-1-1-1-1-1-1-1--0-8-0-1--3-1-0-0-0-0-0-0-0---| 1x
           ^^^^^^Palm Mute^^^^^^                 ^Palm Mute^

~chorus~
e|-----------------------------------------------------------------------------|
B|-----------------------------------------------------------------------------|
G|-----------------------------------------------------------------------------|
D|--10-10-10-10-10-10-10-10--3-3-3-3-3-3-3-3--2-2-2-2-2-2-2-2--3-3-3-3-3-3-3-3-|
A|--10-10-10-10-10-10-10-10--3-3-3-3-3-3-3-3--2-2-2-2-2-2-2-2--3-3-3-3-3-3-3-3-|
E|---8--8--8--8--8--8--8--8--1-1-1-1-1-1-1-1--0-0-0-0-0-0-0-0--1-1-1-1-1-1-1-1-| 4x



e|----------------------------------------------|
B|----------------------------------------------|
G|----------------------------------------------|
D|----------------------------------------------|
A|----------------------------------------------|
E|---8-8-8-8-8-8-8-8----------------------------| 1x

e|-----------------------------------------------------------------------------|
B|-----------------------------------------------------------------------------|
G|-----------------------------------------------------------------------------|
D|--10-10-10-10-10-10-10-10--3-3-3-3-3-3-3-3--2-2-2-2-2-2-2-2--3-3-3-3-3-3-3-3-|
A|--10-10-10-10-10-10-10-10--3-3-3-3-3-3-3-3--2-2-2-2-2-2-2-2--3-3-3-3-3-3-3-3-|
E|---8--8--8--8--8--8--8--8--1-1-1-1-1-1-1-1--0-0-0-0-0-0-0-0--1-1-1-1-1-1-1-1-| 3x

e|--------------------------------------------------------------------------------------|
B|--------------------------------------------------------------------------------------|
G|--------------------------------------------------------------------------------------|
D|--10-10-10-10-10-10-10-10--3-3-3-3-3-3-3-3--2-2-2-2-2-2-2-2--3-3-3-3-3-3-3-3-3-3-3-3-3|
A|--10-10-10-10-10-10-10-10--3-3-3-3-3-3-3-3--2-2-2-2-2-2-2-2--3-3-3-3-3-3-3-3-3-3-3-3-3|
E|---8--8--8--8--8--8--8--8--1-1-1-1-1-1-1-1--0-0-0-0-0-0-0-0--1-1-1-1-1-1-1-1-1-1-1-1-1| 1x


e|----------------------------------------------|
B|----------------------------------------------|
G|----------------------------------------------|
D|--------3-------------------------------------|
A|--------3-------------------------------------|
E|--0-8-0-1-------------------------------------| 2x
         (Ring)


\,,/ (>_<) \,,/
Questions, comments: AIM = PhreneticINC
Tap to rate this tab
 
# A B C D E F G H I J K L M N O P Q R S T U V W X Y Z