Song name
# A B C D E F G H I J K L M N O P Q R S T U V W X Y Z

Kotiteollisuus - Min Olen tab

Help us improve GuitareTab! Take a short survey!
KOTITEOLLISUUS: MINÄ OLEN

Vire: C#-G#-C#-F#-A#-D#

  ****************************************************************************
  Tabbed by Plikk
  ****************************************************************************

x = dempattuna


Alkuriffi:

1-kitara
|-----------------------------------------------------------|
|-----------------------------------------------------------|
|-----------------------------------------------------------|
|--77777777-33333333-10-10-10-10-10-10-10-10-12-10-9-10--9--|
|--77777777-33333333-10-10-10-10-10-10-10-10-12-10-9-10--9--|
|--77777777-33333333-10-10-10-10-10-10-10-10-12-10-9-10--9--|

2-kitara
|--------------|--------------|-----|
|--------------|--------------|-----|
|--7-5-4-5--4--|--54545454...-|--5--|
|--------------|--------------|-----|
|--------------|--------------|-----|
|--------------|--------------|-----|



...Ja sen mies...
|------------------------------------------------------------------|------|
|------------------------------------------------------------------|------|
|------------------------------------------------------------------|------|
|--10-10-10-10...-7-7-5-5-5-5...-7-7-8-8-8-8...-7-7-3-3-3-3...5-5--|--10--|
|--10-10-10-10...-7-7-5-5-5-5...-7-7-8-8-8-8...-7-7-3-3-3-3...5-5--|--10--|
|--10-10-10-10...-7-7-5-5-5-5...-7-7-8-8-8-8...-7-7-3-3-3-3...5-5--|--10--|
   x  x  x  x     x x x x x x    x x x x x x    x x x x x x   x x


Kertsi:
|------------------------------------------------------|
|------------------------------------------------------|
|------------------------------------------------------|
|--77777777-33333333-10-10-10-10-10-10-10-10-55555555--|
|--77777777-33333333-10-10-10-10-10-10-10-10-55555555--|
|--77777777-33333333-10-10-10-10-10-10-10-10-55555555--|

|-------------------------------|
|-------------------------------|
|-------------------------------|
|--7------3------10------5------|
|--7------3------10------5------|
|--7------3------10------5------|



Välisoitto:
|----------------------------------|
|----------------------------------|
|----------------------------------|
|--0-0-0-0-0-0-0-----0-0-0-0-0-----|
|--0-0-0-0-0-0-0-----0-0-0-0-0-----|
|--0-0-0-0-0-0-0-2b--0-0-0-0-0-2b--|
   x x x x x x x     x x x x x
Related for Min Olen tab