Song name
# A B C D E F G H I J K L M N O P Q R S T U V W X Y Z

Kotiteollisuus - Veri Valuu Maahan tab

KOTITEOLLISUUS: VERI VALUU MAAHAN

Vire: C#-G#-C#-F#-A#-D#

  ***********************************************************
  *  tabbed by plikk                                        *
   
  

x = dempattuna


Alkuriffi
|----------------------------------------------------------|
|----------------------------------------------------------|
|----------------------------------------------------------|
|--0-0-0--0-0--0-0-0-------0-0-0--0------------------------|
|--0-0-0--0-0--0-0-0-------0-0-0--0------------------------|
|--0-0-0--0-0--0-0-0-8-0-8-0-0-0--0-8-8-8-8-7-7-7-7-1-1-1--|


|----------------------------------------------------------|
|----------------------------------------------------------|
|----------------------------------------------------------|
|--0-0-0--0-0--0-0-0-8-0-8-0-0-0--0-8-8-8-8-7-7-7-7-1-1-1--|
|--0-0-0--0-0--0-0-0-8-0-8-0-0-0--0-8-8-8-8-7-7-7-7-1-1-1--|
|--0-0-0--0-0--0-0-0-8-0-8-0-0-0--0-8-8-8-8-7-7-7-7-1-1-1--|


...Kaatopaikat, hautuumaat...
|--------------------------------|
|--------------------------------|
|--------------------------------|
|--0-0-0-0-0--0-0--0----0-0-0-0--|
|--0-0-0-0-0--0-0--0----0-0-0-0--|
|--0-0-0-0-0--0-0--0-1--0-0-0-0--|
                        x x x x


...Meidät tähän kirjoitan... (kaikki soinnut 2X)
|-------------------------------------------------------------------|
|-------------------------------------------------------------------|
|-------------------------------------------------------------------|
|--5-5-5-5-5-5-5-5-3-3-3-3-3-3-3-3-7-7-7-7-7-7-7-7-6-6-6-6-6-6-6-6--|
|--5-5-5-5-5-5-5-5-3-3-3-3-3-3-3-3-7-7-7-7-7-7-7-7-6-6-6-6-6-6-6-6--|
|--5-5-5-5-5-5-5-5-3-3-3-3-3-3-3-3-7-7-7-7-7-7-7-7-6-6-6-6-6-6-6-6--|


Kertosäkeen alku toisella kerralla:
|-------------------------------------------------------------------|
|-------------------------------------------------------------------|
|-------------------------------------------------------------------|
|--5-5-5-5-5-5-5-5-3-3-3-3-3-3-3-3-7-7-7-7-7-7-7-7-6-6-6-6-6-6-6-6--|
|----------------------------------7-7-7-7-7-7-7-7-6-6-6-6-6-6-6-6--|
|----------------------------------7-7-7-7-7-7-7-7-6-6-6-6-6-6-6-6--|
Tap to rate this tab
# A B C D E F G H I J K L M N O P Q R S T U V W X Y Z