Guitaretab - guitar tabs
Song name
# A B C D E F G H I J K L M N O P Q R S T U V W X Y Z

Kotiteollisuus - Kuningas Mammona tab

KOTITEOLLISUUS: KUNINGAS MAMMONA

Vire: C#-G#-C#-F#-A#-D#

  ************************************************************
  *  tabbed by Plikk                                         *
  
  

x = dempattuna


Alkuriffi
|-----------------------------------------------------------|
|-----------------------------------------------------------|
|-----------------------------------------------------------|
|--0--0-------0--------0------0------0------0------0--3--5--|
|--0--0-------0--------0------0------0------0------0--3--5--|
|--0--0--10-9-0--13-12-0--8-7-0--6-5-0--4-3-0--2-1-0--3--5--|


|-------------------------------------------------------|
|-------------------------------------------------------|
|-------------------------------------------------------|
|--0-0-7-6-5--0-4--3-2---1--0-0-7-6-5--0-4--3-2--0-1----|
|--0-0-7-6-5--0-4--3-2---1--0-0-7-6-5--0-4--3-2--0-1-1--|
|--0-0-7-6-5--0-4--3-2---1--0-0-7-6-5--0-4--3-2--0-1----|


...Korkean hopeatornin...
|-------------------------------------------------------|
|-------------------------------------------------------|
|-------------------------------------------------------|
|--0-0-7-6-5--0-4--3-2---1--0-0-7-6-5--0-4--3-2--0-1----|
|--0-0-7-6-5--0-4--3-2---1--0-0-7-6-5--0-4--3-2--0-1-1--|
|--0-0-7-6-5--0-4--3-2---1--0-0-7-6-5--0-4--3-2--0-1----|
   x x                      x x 

[ Tab from: http://www.guitaretab.com/k/kotiteollisuus/49255.html ]
...Eläköön Kuningas Mammona...
|-------------------------------|
|-------------------------------|
|-------------------------------|
|--0-1-1-0-1--0-1-1-0-1--0-1-1--|
|--0-1-1-0-1--0-1-1-0-1--0-1-1--|
|--0-1-1-0-1--0-1-1-0-1--0-1-1--|


...Henkäys, joka...     1-2.    3.
|----------------------|-------|-------|
|----------------------|-------|-------|
|----------------------|-------|-------|
|--0-1--0-1--0-1--0-1--|-0-1---|-0-1-1-|
|--0-1--0-1--0-1--0-1--|-0-1---|-0-1-1-|
|--0-1--0-1--0-1--0-1--|-0-1---|-0-1-1-|


Alkuriffi trioleina (Kohdassa 2:08-2:17)         1.     2.
|-----------------------------------------------|------|---|
|-----------------------------------------------|------|---|
|-----------------------------------------------|------|---|
|--0--0-------0-------0-----0-----0-----0-----0-|-3--5-|-3-|
|--0--0-------0-------0-----0-----0-----0-----0-|-3--5-|-3-|
|--0--0--10-9-0-13-12-0-8-7-0-6-5-0-4-3-0-2-1-0-|-3--5-|-3-|



Loppuhuipennus:                            1.  2.
|-----------------------------------------|---|---|
|-----------------------------------------|---|---|
|-----------------------------------------|---|---|
|--0-1-1-0-3--0-1--0-3--0-1-1-0-3--0-1--0-|-2-|-4-|
|--0-1-1-0-3--0-1--0-3--0-1-1-0-3--0-1--0-|-2-|-4-|
|--0-1-1-0-3--0-1--0-3--0-1-1-0-3--0-1--0-|-2-|-4-|

|-------------|
|-------------|
|-------------|
|--0-1-1-0-3--|
|--0-1-1-0-3--|
|--0-1-1-0-3--|
Related for Kuningas Mammona tab
Kuningas Mammona chords by Kotiteollisuus