Song name
# A B C D E F G H I J K L M N O P Q R S T U V W X Y Z

Kotiteollisuus - Tuonen Joutsen tab

KOTITEOLLISUUS: TUONEN JOUTSEN

Vire: C#-G#-C#-F#-A#-D#

  Tabbed by plikk
  ****************************************************************************

x = dempattuna


Alkuriffi
|---------------------|
|---------------------|
|---------------------|
|--2-2-2-----2-2-2----|
|--2-2-2-----2-2-2----|
|--2-2-2-3---2-2-2-3--|
   x x x     x x x


Kertsi:
|------------------------------------------------------------------------
|------------------------------------------------------------------------
|------------------------------------------------------------------------
|--8-8-8-5-5-5-10-10-10-12-12-12-8-8-5-5-8-8-8-5-5-5-3-3-3-5-5-5-1-1-0-0-
|--8-8-8-5-5-5-10-10-10-12-12-12-8-8-5-5-8-8-8-5-5-5-3-3-3-5-5-5-1-1-0-0-
|--8-8-8-5-5-5-10-10-10-12-12-12-8-8-5-5-8-8-8-5-5-5-3-3-3-5-5-5-1-1-0-0-

 --------------------------------------------------------------------------|
 --------------------------------------------------------------------------|
 --------------------------------------------------------------------------|
 -12-12-12-5-5-5-8-8-8-5-5-5-10-10-11-11-12-12-12-5-5-5-8-8-8-5-5-5-1-1-0--|
 -12-12-12-5-5-5-8-8-8-5-5-5-10-10-11-11-12-12-12-5-5-5-8-8-8-5-5-5-1-1-0--|
 -12-12-12-5-5-5-8-8-8-5-5-5-10-10-11-11-12-12-12-5-5-5-8-8-8-5-5-5-1-1-0--|



Loppujamit: 
                          1.                2.
|------------------------|-----------------|-----------------------------------|
|------------------------|-----------------|-----------------------------------|
|------------------------|-----------------|-----------------------------------|
|--2----5-3----5--1----3-|-2----0-0---0-0--|---0-2-3-0-2-3-0-2-3-0-2-3-0-2-----|
|--2----5-3----5--1----3-|-2----0-0---0-0--|:--0-2-3-0-2-3-0-2-3-0-2-3-0-2----:|
|--2----5-3----5--1----3-|-2----0-0---0-0--|---0-2-3-0-2-3-0-2-3-0-2-3-0-2-3---|
                                x x   x x 

|----------------------------------------------------------------|
|----------------------------------------------------------------|
|----------------------------------------------------------------|
|--5--9--5--7--3----5--8--5--7----5--9--5--7--3--5--7--8--10--9--|
|----------------------------------------------------------------|
|----------------------------------------------------------------|


|---------------------------------|
|---------------------------------|
|---------------------------------|
|--0-2-3-0-3-4-0-4-5-0-5-6-0-6-7--|
|--0-2-3-0-3-4-0-4-5-0-5-6-0-6-7--|
|--0-2-3-0-3-4-0-4-5-0-5-6-0-6-7--|
Tap to rate this tab
 
# A B C D E F G H I J K L M N O P Q R S T U V W X Y Z